  0
SECTION
  2
HEADER
  9
$ACADVER
  1
AC1015
  9
$ACADMAINTVER
 70
     6
  9
$DWGCODEPAGE
  3
ANSI_1254
  9
$INSBASE
 10
0.0
 20
0.0
 30
0.0
  9
$EXTMIN
 10
0.0
 20
0.0
 30
0.0
  9
$EXTMAX
 10
279.4
 20
215.9
 30
0.0
  9
$LIMMIN
 10
0.0
 20
0.0
  9
$LIMMAX
 10
279.4
 20
215.9
  9
$ORTHOMODE
 70
     0
  9
$REGENMODE
 70
     1
  9
$FILLMODE
 70
     1
  9
$QTEXTMODE
 70
     0
  9
$MIRRTEXT
 70
     1
  9
$LTSCALE
 40
1.0
  9
$ATTMODE
 70
     1
  9
$TEXTSIZE
 40
3.5
  9
$TRACEWID
 40
1.0
  9
$TEXTSTYLE
  7
Standard
  9
$CLAYER
  8
0
  9
$CELTYPE
  6
ByLayer
  9
$CECOLOR
 62
   256
  9
$CELTSCALE
 40
1.0
  9
$DISPSILH
 70
     0
  9
$DIMSCALE
 40
1.0
  9
$DIMASZ
 40
3.5
  9
$DIMEXO
 40
1.0
  9
$DIMDLI
 40
3.75
  9
$DIMRND
 40
0.0
  9
$DIMDLE
 40
0.0
  9
$DIMEXE
 40
1.0
  9
$DIMTP
 40
0.0
  9
$DIMTM
 40
0.0
  9
$DIMTXT
 40
3.5
  9
$DIMCEN
 40
2.5
  9
$DIMTSZ
 40
0.0
  9
$DIMTOL
 70
     0
  9
$DIMLIM
 70
     0
  9
$DIMTIH
 70
     1
  9
$DIMTOH
 70
     1
  9
$DIMSE1
 70
     0
  9
$DIMSE2
 70
     0
  9
$DIMTAD
 70
     1
  9
$DIMZIN
 70
     0
  9
$DIMBLK
  1

  9
$DIMASO
 70
     1
  9
$DIMSHO
 70
     1
  9
$DIMPOST
  1

  9
$DIMAPOST
  1

  9
$DIMALT
 70
     0
  9
$DIMALTD
 70
     3
  9
$DIMALTF
 40
0.0393700787
  9
$DIMLFAC
 40
1.0
  9
$DIMTOFL
 70
     1
  9
$DIMTVP
 40
0.0
  9
$DIMTIX
 70
     0
  9
$DIMSOXD
 70
     0
  9
$DIMSAH
 70
     0
  9
$DIMBLK1
  1

  9
$DIMBLK2
  1

  9
$DIMSTYLE
  2
ISO-25
  9
$DIMCLRD
 70
     0
  9
$DIMCLRE
 70
     0
  9
$DIMCLRT
 70
     0
  9
$DIMTFAC
 40
1.0
  9
$DIMGAP
 40
1.524
  9
$DIMJUST
 70
     0
  9
$DIMSD1
 70
     0
  9
$DIMSD2
 70
     0
  9
$DIMTOLJ
 70
     0
  9
$DIMTZIN
 70
     0
  9
$DIMALTZ
 70
     0
  9
$DIMALTTZ
 70
     0
  9
$DIMUPT
 70
     0
  9
$DIMDEC
 70
     2
  9
$DIMTDEC
 70
     2
  9
$DIMALTU
 70
     2
  9
$DIMALTTD
 70
     3
  9
$DIMTXSTY
  7
Standard
  9
$DIMAUNIT
 70
     0
  9
$DIMADEC
 70
     2
  9
$DIMALTRND
 40
0.0
  9
$DIMAZIN
 70
     0
  9
$DIMDSEP
 70
    44
  9
$DIMATFIT
 70
     3
  9
$DIMFRAC
 70
     0
  9
$DIMLDRBLK
  1

  9
$DIMLUNIT
 70
     2
  9
$DIMLWD
 70
    -2
  9
$DIMLWE
 70
    -2
  9
$DIMTMOVE
 70
     0
  9
$LUNITS
 70
     2
  9
$LUPREC
 70
     2
  9
$SKETCHINC
 40
1.0
  9
$FILLETRAD
 40
10.0
  9
$AUNITS
 70
     0
  9
$AUPREC
 70
     2
  9
$MENU
  1
.
  9
$ELEVATION
 40
0.0
  9
$PELEVATION
 40
0.0
  9
$THICKNESS
 40
0.0
  9
$LIMCHECK
 70
     0
  9
$CHAMFERA
 40
0.0
  9
$CHAMFERB
 40
0.0
  9
$CHAMFERC
 40
0.0
  9
$CHAMFERD
 40
0.0
  9
$SKPOLY
 70
     0
  9
$TDCREATE
 40
2459741.60320037
  9
$TDUCREATE
 40
2459741.47820037
  9
$TDUPDATE
 40
2459741.603200544
  9
$TDUUPDATE
 40
2459741.478200544
  9
$TDINDWG
 40
0.0000000116
  9
$TDUSRTIMER
 40
0.0000000116
  9
$USRTIMER
 70
     1
  9
$ANGBASE
 50
0.0
  9
$ANGDIR
 70
     0
  9
$PDMODE
 70
     0
  9
$PDSIZE
 40
-1.0
  9
$PLINEWID
 40
0.0
  9
$SPLFRAME
 70
     0
  9
$SPLINETYPE
 70
     6
  9
$SPLINESEGS
 70
     8
  9
$HANDSEED
  5
131
  9
$SURFTAB1
 70
     6
  9
$SURFTAB2
 70
     6
  9
$SURFTYPE
 70
     6
  9
$SURFU
 70
     6
  9
$SURFV
 70
     6
  9
$UCSBASE
  2

  9
$UCSNAME
  2

  9
$UCSORG
 10
0.0
 20
0.0
 30
0.0
  9
$UCSXDIR
 10
1.0
 20
0.0
 30
0.0
  9
$UCSYDIR
 10
0.0
 20
1.0
 30
0.0
  9
$UCSORTHOREF
  2

  9
$UCSORTHOVIEW
 70
     0
  9
$UCSORGTOP
 10
0.0
 20
0.0
 30
0.0
  9
$UCSORGBOTTOM
 10
0.0
 20
0.0
 30
0.0
  9
$UCSORGLEFT
 10
0.0
 20
0.0
 30
0.0
  9
$UCSORGRIGHT
 10
0.0
 20
0.0
 30
0.0
  9
$UCSORGFRONT
 10
0.0
 20
0.0
 30
0.0
  9
$UCSORGBACK
 10
0.0
 20
0.0
 30
0.0
  9
$PUCSBASE
  2

  9
$PUCSNAME
  2

  9
$PUCSORG
 10
0.0
 20
0.0
 30
0.0
  9
$PUCSXDIR
 10
1.0
 20
0.0
 30
0.0
  9
$PUCSYDIR
 10
0.0
 20
1.0
 30
0.0
  9
$PUCSORTHOREF
  2

  9
$PUCSORTHOVIEW
 70
     0
  9
$PUCSORGTOP
 10
0.0
 20
0.0
 30
0.0
  9
$PUCSORGBOTTOM
 10
0.0
 20
0.0
 30
0.0
  9
$PUCSORGLEFT
 10
0.0
 20
0.0
 30
0.0
  9
$PUCSORGRIGHT
 10
0.0
 20
0.0
 30
0.0
  9
$PUCSORGFRONT
 10
0.0
 20
0.0
 30
0.0
  9
$PUCSORGBACK
 10
0.0
 20
0.0
 30
0.0
  9
$USERI1
 70
     0
  9
$USERI2
 70
     0
  9
$USERI3
 70
     0
  9
$USERI4
 70
     0
  9
$USERI5
 70
     0
  9
$USERR1
 40
0.0
  9
$USERR2
 40
0.0
  9
$USERR3
 40
0.0
  9
$USERR4
 40
0.0
  9
$USERR5
 40
0.0
  9
$WORLDVIEW
 70
     1
  9
$SHADEDGE
 70
     3
  9
$SHADEDIF
 70
    70
  9
$TILEMODE
 70
     1
  9
$MAXACTVP
 70
    64
  9
$PINSBASE
 10
0.0
 20
0.0
 30
0.0
  9
$PLIMCHECK
 70
     0
  9
$PEXTMIN
 10
1.0000000000E+20
 20
1.0000000000E+20
 30
1.0000000000E+20
  9
$PEXTMAX
 10
-1.0000000000E+20
 20
-1.0000000000E+20
 30
-1.0000000000E+20
  9
$PLIMMIN
 10
0.0
 20
0.0
  9
$PLIMMAX
 10
420.0
 20
297.0
  9
$UNITMODE
 70
     0
  9
$VISRETAIN
 70
     1
  9
$PLINEGEN
 70
     0
  9
$PSLTSCALE
 70
     1
  9
$TREEDEPTH
 70
  3020
  9
$CMLSTYLE
  2
Standard
  9
$CMLJUST
 70
     0
  9
$CMLSCALE
 40
20.0
  9
$PROXYGRAPHICS
 70
     1
  9
$MEASUREMENT
 70
     1
  9
$CELWEIGHT
370
    -1
  9
$ENDCAPS
280
     0
  9
$JOINSTYLE
280
     0
  9
$LWDISPLAY
290
     1
  9
$INSUNITS
 70
     4
  9
$HYPERLINKBASE
  1

  9
$STYLESHEET
  1

  9
$XEDIT
290
     1
  9
$CEPSNTYPE
380
     0
  9
$PSTYLEMODE
290
     1
  9
$FINGERPRINTGUID
  2
{26f1baf4-2742-450e-8a17-e6aaaeb40ace}
  9
$VERSIONGUID
  2
{FAEB1C32-E019-11D5-929B-00C0DF256EC4}
  9
$EXTNAMES
290
     1
  9
$PSVPSCALE
 40
0.0
  9
$OLESTARTUP
290
     0
  0
ENDSEC
  0
SECTION
  2
CLASSES
  0
CLASS
  1
ACDBDICTIONARYWDFLT
  2
AcDbDictionaryWithDefault
  3
ObjectDBX Classes
 90
        0
280
     0
281
     0
  0
CLASS
  1
VISUALSTYLE
  2
AcDbVisualStyle
  3
ObjectDBX Classes
 90
     4095
280
     0
281
     0
  0
CLASS
  1
MATERIAL
  2
AcDbMaterial
  3
ObjectDBX Classes
 90
     1153
280
     0
281
     0
  0
CLASS
  1
SCALE
  2
AcDbScale
  3
ObjectDBX Classes
 90
     1153
280
     0
281
     0
  0
CLASS
  1
TABLESTYLE
  2
AcDbTableStyle
  3
ObjectDBX Classes
 90
     4095
280
     0
281
     0
  0
CLASS
  1
MLEADERSTYLE
  2
AcDbMLeaderStyle
  3
ACDB_MLEADERSTYLE_CLASS
 90
     4095
280
     0
281
     0
  0
CLASS
  1
SUN
  2
AcDbSun
  3
SCENEOE
 90
     1153
280
     0
281
     0
  0
CLASS
  1
ACDBPLACEHOLDER
  2
AcDbPlaceHolder
  3
ObjectDBX Classes
 90
        0
280
     0
281
     0
  0
CLASS
  1
LAYOUT
  2
AcDbLayout
  3
ObjectDBX Classes
 90
        0
280
     0
281
     0
  0
ENDSEC
  0
SECTION
  2
TABLES
  0
TABLE
  2
VPORT
  5
8
330
0
100
AcDbSymbolTable
 70
     1
  0
VPORT
  5
29
330
8
100
AcDbSymbolTableRecord
100
AcDbViewportTableRecord
  2
*Active
 70
     0
 10
0.0
 20
0.0
 11
1.0
 21
1.0
 12
139.7
 22
107.95
 13
0.0
 23
0.0
 14
10.0
 24
10.0
 15
10.0
 25
10.0
 16
0.0
 26
0.0
 36
1.0
 17
0.0
 27
0.0
 37
0.0
 40
215.9
 41
1.2941176471
 42
50.0
 43
0.0
 44
0.0
 50
0.0
 51
0.0
 71
     0
 72
  2000
 73
     1
 74
     3
 75
     0
 76
     0
 77
     0
 78
     0
281
     0
 65
     1
110
0.0
120
0.0
130
0.0
111
1.0
121
0.0
131
0.0
112
0.0
122
1.0
132
0.0
 79
     0
146
0.0
  0
ENDTAB
  0
TABLE
  2
LTYPE
  5
5
330
0
100
AcDbSymbolTable
 70
     6
  0
LTYPE
  5
14
330
5
100
AcDbSymbolTableRecord
100
AcDbLinetypeTableRecord
  2
ByBlock
 70
     0
  3

 72
    65
 73
     0
 40
0.0
  0
LTYPE
  5
15
330
5
100
AcDbSymbolTableRecord
100
AcDbLinetypeTableRecord
  2
ByLayer
 70
     0
  3

 72
    65
 73
     0
 40
0.0
  0
LTYPE
  5
16
330
5
100
AcDbSymbolTableRecord
100
AcDbLinetypeTableRecord
  2
Continuous
 70
     0
  3
Solid line
 72
    65
 73
     0
 40
0.0
  0
LTYPE
  5
6E
330
5
100
AcDbSymbolTableRecord
100
AcDbLinetypeTableRecord
  2
HIDDEN
 70
     0
  3
Hidden __ __ __ __ __ __ __ __ __ __ __ __ __ __
 72
    65
 73
     2
 40
1.905
 49
1.27
 74
     0
 49
-0.635
 74
     0
  0
LTYPE
  5
6F
330
5
100
AcDbSymbolTableRecord
100
AcDbLinetypeTableRecord
  2
PHANTOM
 70
     0
  3
Phantom ______  __  __  ______  __  __  ______
 72
    65
 73
     6
 40
12.7
 49
6.35
 74
     0
 49
-1.27
 74
     0
 49
1.27
 74
     0
 49
-1.27
 74
     0
 49
1.27
 74
     0
 49
-1.27
 74
     0
  0
LTYPE
  5
70
330
5
100
AcDbSymbolTableRecord
100
AcDbLinetypeTableRecord
  2
CENTER
 70
     0
  3
Center ____ _ ____ _ ____ _ ____ _ ____ _ ____
 72
    65
 73
     4
 40
10.16
 49
6.35
 74
     0
 49
-1.27
 74
     0
 49
1.27
 74
     0
 49
-1.27
 74
     0
  0
LTYPE
  5
71
330
5
100
AcDbSymbolTableRecord
100
AcDbLinetypeTableRecord
  2
CENTERX2
 70
     0
  3
Center (2x) ________  __  ________  __  _____
 72
    65
 73
     4
 40
20.32
 49
12.7
 74
     0
 49
-2.54
 74
     0
 49
2.54
 74
     0
 49
-2.54
 74
     0
  0
LTYPE
  5
72
330
5
100
AcDbSymbolTableRecord
100
AcDbLinetypeTableRecord
  2
DOT2
 70
     0
  3
Dot (.5x) ........................................
 72
    65
 73
     2
 40
0.635
 49
0.0
 74
     0
 49
-0.635
 74
     0
  0
ENDTAB
  0
TABLE
  2
LAYER
  5
2
330
0
100
AcDbSymbolTable
 70
    17
  0
LAYER
  5
10
330
2
100
AcDbSymbolTableRecord
100
AcDbLayerTableRecord
  2
0
 70
     0
 62
     7
  6
Continuous
370
    -3
390
F
  0
LAYER
  5
73
330
2
100
AcDbSymbolTableRecord
100
AcDbLayerTableRecord
  2
FORMAT
 70
     0
 62
     7
  6
Continuous
370
    -3
390
F
  0
LAYER
  5
74
330
2
100
AcDbSymbolTableRecord
100
AcDbLayerTableRecord
  2
YARDIMCI_GEOMETRI
 70
     0
 62
    -6
  6
Continuous
290
     0
370
    -3
390
F
  0
LAYER
  5
75
330
2
100
AcDbSymbolTableRecord
100
AcDbLayerTableRecord
  2
SAYFA_CERCEVESI
 70
     0
 62
     7
  6
Continuous
370
    25
390
F
  0
LAYER
  5
76
330
2
100
AcDbSymbolTableRecord
100
AcDbLayerTableRecord
  2
ANTET
 70
     0
 62
     7
  6
Continuous
370
    -3
390
F
  0
LAYER
  5
77
330
2
100
AcDbSymbolTableRecord
100
AcDbLayerTableRecord
  2
OLCU
 70
     0
 62
   150
  6
Continuous
370
    -3
390
F
  0
LAYER
  5
78
330
2
100
AcDbSymbolTableRecord
100
AcDbLayerTableRecord
  2
METIN
 70
     0
 62
    96
  6
Continuous
370
    -3
390
F
  0
LAYER
  5
79
330
2
100
AcDbSymbolTableRecord
100
AcDbLayerTableRecord
  2
BALON
 70
     0
 62
     5
  6
Continuous
370
    -3
390
F
  0
LAYER
  5
7A
330
2
100
AcDbSymbolTableRecord
100
AcDbLayerTableRecord
  2
VURGU
 70
     0
 62
     7
  6
Continuous
370
    -3
390
F
  0
LAYER
  5
7B
330
2
100
AcDbSymbolTableRecord
100
AcDbLayerTableRecord
  2
SILIK
 70
     0
 62
     7
  6
Continuous
370
    -3
390
F
  0
LAYER
  5
7C
330
2
100
AcDbSymbolTableRecord
100
AcDbLayerTableRecord
  2
MODEL
 70
     0
 62
     7
  6
Continuous
370
    -3
390
F
  0
LAYER
  5
7D
330
2
100
AcDbSymbolTableRecord
100
AcDbLayerTableRecord
  2
DETAYLANDıRMA
 70
     0
 62
   190
  6
Continuous
370
    -3
390
F
  0
LAYER
  5
7E
330
2
100
AcDbSymbolTableRecord
100
AcDbLayerTableRecord
  2
TOLERANS
 70
     0
 62
   230
  6
Continuous
370
    -3
390
F
  0
LAYER
  5
7F
330
2
100
AcDbSymbolTableRecord
100
AcDbLayerTableRecord
  2
MERKEZ_CIZGILERI
 70
     0
 62
    30
  6
Continuous
370
    -3
390
F
  0
LAYER
  5
80
330
2
100
AcDbSymbolTableRecord
100
AcDbLayerTableRecord
  2
KESIT-DETAY_CIZGILERI
 70
     0
 62
     7
  6
Continuous
370
    -3
390
F
  0
LAYER
  5
81
330
2
100
AcDbSymbolTableRecord
100
AcDbLayerTableRecord
  2
\U+041E\U+0421\U+0415\U+0412\U+042B\U+0415
 70
     0
 62
     7
  6
Continuous
370
    -3
390
F
  0
LAYER
  5
82
330
2
100
AcDbSymbolTableRecord
100
AcDbLayerTableRecord
  2
\U+0412\U+041E\U+0414\U+042F\U+041D\U+042B\U+0415_\U+0417\U+041D\U+0410\U+041A\U+0418
 70
     0
 62
    11
  6
Continuous
370
    -3
390
F
  0
ENDTAB
  0
TABLE
  2
STYLE
  5
3
330
0
100
AcDbSymbolTable
 70
     1
  0
STYLE
  5
11
330
3
100
AcDbSymbolTableRecord
100
AcDbTextStyleTableRecord
  2
Standard
 70
     0
 40
0.0
 41
1.0
 50
0.0
 71
     0
 42
3.5
  3
txt
  4

  0
ENDTAB
  0
TABLE
  2
VIEW
  5
6
330
0
100
AcDbSymbolTable
 70
     0
  0
ENDTAB
  0
TABLE
  2
UCS
  5
7
330
0
100
AcDbSymbolTable
 70
     0
  0
ENDTAB
  0
TABLE
  2
APPID
  5
9
330
0
100
AcDbSymbolTable
 70
     1
  0
APPID
  5
12
330
9
100
AcDbSymbolTableRecord
100
AcDbRegAppTableRecord
  2
ACAD
 70
     0
  0
ENDTAB
  0
TABLE
  2
DIMSTYLE
  5
A
330
0
100
AcDbSymbolTable
 70
     1
100
AcDbDimStyleTable
  0
DIMSTYLE
105
27
330
A
100
AcDbSymbolTableRecord
100
AcDbDimStyleTableRecord
  2
ISO-25
 70
     0
 41
2.5
 42
0.625
 43
3.75
 44
1.25
 73
     0
 74
     0
 77
     1
 78
     8
140
2.5
141
2.5
143
0.0393700787
147
0.625
171
     3
172
     1
178
     0
271
     2
272
     2
274
     3
278
    44
283
     0
284
     8
340
11
  0
ENDTAB
  0
TABLE
  2
BLOCK_RECORD
  5
1
330
0
100
AcDbSymbolTable
 70
     5
  0
BLOCK_RECORD
  5
1F
330
1
100
AcDbSymbolTableRecord
100
AcDbBlockTableRecord
  2
*Model_Space
340
22
  0
BLOCK_RECORD
  5
1B
330
1
100
AcDbSymbolTableRecord
100
AcDbBlockTableRecord
  2
*Paper_Space
340
1E
  0
BLOCK_RECORD
  5
23
330
1
100
AcDbSymbolTableRecord
100
AcDbBlockTableRecord
  2
*Paper_Space0
340
26
  0
BLOCK_RECORD
  5
AB
330
1
100
AcDbSymbolTableRecord
100
AcDbBlockTableRecord
  2
SW_CENTERMARKSYMBOL_0
340
0
102
{BLKREFS
331
B6
102
}
  0
BLOCK_RECORD
  5
C9
330
1
100
AcDbSymbolTableRecord
100
AcDbBlockTableRecord
  2
SW_CENTERMARKSYMBOL_1
340
0
102
{BLKREFS
331
D4
102
}
  0
BLOCK_RECORD
  5
ED
330
1
100
AcDbSymbolTableRecord
100
AcDbBlockTableRecord
  2
SW_CENTERMARKSYMBOL_2
340
0
102
{BLKREFS
331
F8
102
}
  0
BLOCK_RECORD
  5
10B
330
1
100
AcDbSymbolTableRecord
100
AcDbBlockTableRecord
  2
SW_CENTERMARKSYMBOL_3
340
0
102
{BLKREFS
331
116
102
}
  0
ENDTAB
  0
ENDSEC
  0
SECTION
  2
BLOCKS
  0
BLOCK
  5
20
330
1F
100
AcDbEntity
  8
0
100
AcDbBlockBegin
  2
*Model_Space
 70
     0
 10
0.0
 20
0.0
 30
0.0
  3
*Model_Space
  1

  0
ENDBLK
  5
21
330
1F
100
AcDbEntity
  8
0
100
AcDbBlockEnd
  0
BLOCK
  5
1C
330
1B
100
AcDbEntity
 67
     1
  8
0
100
AcDbBlockBegin
  2
*Paper_Space
 70
     0
 10
0.0
 20
0.0
 30
0.0
  3
*Paper_Space
  1

  0
ENDBLK
  5
1D
330
1B
100
AcDbEntity
 67
     1
  8
0
100
AcDbBlockEnd
  0
BLOCK
  5
24
330
23
100
AcDbEntity
  8
0
100
AcDbBlockBegin
  2
*Paper_Space0
 70
     0
 10
0.0
 20
0.0
 30
0.0
  3
*Paper_Space0
  1

  0
ENDBLK
  5
25
330
23
100
AcDbEntity
  8
0
100
AcDbBlockEnd
  0
BLOCK
  5
AC
330
AB
100
AcDbEntity
  8
0
100
AcDbBlockBegin
  2
SW_CENTERMARKSYMBOL_0
 70
     0
 10
0.0
 20
0.0
 30
0.0
  3
SW_CENTERMARKSYMBOL_0
  1

  0
LINE
  5
AE
330
AB
100
AcDbEntity
  8
FORMAT
 62
     0
100
AcDbLine
 10
0.0
 20
0.0
 30
0.0
 11
0.0
 21
2.5
 31
0.0
  0
LINE
  5
AF
330
AB
100
AcDbEntity
  8
FORMAT
 62
     0
100
AcDbLine
 10
0.0
 20
0.0
 30
0.0
 11
-2.5
 21
0.0
 31
0.0
  0
LINE
  5
B0
330
AB
100
AcDbEntity
  8
FORMAT
 62
     0
100
AcDbLine
 10
0.0
 20
0.0
 30
0.0
 11
0.0
 21
-2.5
 31
0.0
  0
LINE
  5
B1
330
AB
100
AcDbEntity
  8
FORMAT
 62
     0
100
AcDbLine
 10
0.0
 20
0.0
 30
0.0
 11
2.5
 21
0.0
 31
0.0
  0
LINE
  5
B2
330
AB
100
AcDbEntity
  8
FORMAT
 62
     0
100
AcDbLine
 10
0.0
 20
5.0
 30
0.0
 11
0.0
 21
79.5
 31
0.0
  0
LINE
  5
B3
330
AB
100
AcDbEntity
  8
FORMAT
 62
     0
100
AcDbLine
 10
-5.0
 20
0.0
 30
0.0
 11
-79.5
 21
0.0
 31
0.0
  0
LINE
  5
B4
330
AB
100
AcDbEntity
  8
FORMAT
 62
     0
100
AcDbLine
 10
0.0
 20
-5.0
 30
0.0
 11
0.0
 21
-79.5
 31
0.0
  0
LINE
  5
B5
330
AB
100
AcDbEntity
  8
FORMAT
 62
     0
100
AcDbLine
 10
5.0
 20
0.0
 30
0.0
 11
79.5
 21
0.0
 31
0.0
  0
ENDBLK
  5
AD
330
AB
100
AcDbEntity
  8
0
100
AcDbBlockEnd
  0
BLOCK
  5
CA
330
C9
100
AcDbEntity
  8
0
100
AcDbBlockBegin
  2
SW_CENTERMARKSYMBOL_1
 70
     0
 10
0.0
 20
0.0
 30
0.0
  3
SW_CENTERMARKSYMBOL_1
  1

  0
LINE
  5
CC
330
C9
100
AcDbEntity
  8
FORMAT
 62
     0
100
AcDbLine
 10
0.0
 20
0.0
 30
0.0
 11
0.0
 21
2.5
 31
0.0
  0
LINE
  5
CD
330
C9
100
AcDbEntity
  8
FORMAT
 62
     0
100
AcDbLine
 10
0.0
 20
0.0
 30
0.0
 11
-2.5
 21
0.0
 31
0.0
  0
LINE
  5
CE
330
C9
100
AcDbEntity
  8
FORMAT
 62
     0
100
AcDbLine
 10
0.0
 20
0.0
 30
0.0
 11
0.0
 21
-2.5
 31
0.0
  0
LINE
  5
CF
330
C9
100
AcDbEntity
  8
FORMAT
 62
     0
100
AcDbLine
 10
0.0
 20
0.0
 30
0.0
 11
2.5
 21
0.0
 31
0.0
  0
LINE
  5
D0
330
C9
100
AcDbEntity
  8
FORMAT
 62
     0
100
AcDbLine
 10
0.0
 20
5.0
 30
0.0
 11
0.0
 21
79.5
 31
0.0
  0
LINE
  5
D1
330
C9
100
AcDbEntity
  8
FORMAT
 62
     0
100
AcDbLine
 10
-5.0
 20
0.0
 30
0.0
 11
-79.5
 21
0.0
 31
0.0
  0
LINE
  5
D2
330
C9
100
AcDbEntity
  8
FORMAT
 62
     0
100
AcDbLine
 10
0.0
 20
-5.0
 30
0.0
 11
0.0
 21
-79.5
 31
0.0
  0
LINE
  5
D3
330
C9
100
AcDbEntity
  8
FORMAT
 62
     0
100
AcDbLine
 10
5.0
 20
0.0
 30
0.0
 11
79.5
 21
0.0
 31
0.0
  0
ENDBLK
  5
CB
330
C9
100
AcDbEntity
  8
0
100
AcDbBlockEnd
  0
BLOCK
  5
EE
330
ED
100
AcDbEntity
  8
0
100
AcDbBlockBegin
  2
SW_CENTERMARKSYMBOL_2
 70
     0
 10
0.0
 20
0.0
 30
0.0
  3
SW_CENTERMARKSYMBOL_2
  1

  0
LINE
  5
F0
330
ED
100
AcDbEntity
  8
FORMAT
 62
     0
100
AcDbLine
 10
0.0
 20
0.0
 30
0.0
 11
0.0
 21
2.5
 31
0.0
  0
LINE
  5
F1
330
ED
100
AcDbEntity
  8
FORMAT
 62
     0
100
AcDbLine
 10
0.0
 20
0.0
 30
0.0
 11
-2.5
 21
0.0
 31
0.0
  0
LINE
  5
F2
330
ED
100
AcDbEntity
  8
FORMAT
 62
     0
100
AcDbLine
 10
0.0
 20
0.0
 30
0.0
 11
0.0
 21
-2.5
 31
0.0
  0
LINE
  5
F3
330
ED
100
AcDbEntity
  8
FORMAT
 62
     0
100
AcDbLine
 10
0.0
 20
0.0
 30
0.0
 11
2.5
 21
0.0
 31
0.0
  0
LINE
  5
F4
330
ED
100
AcDbEntity
  8
FORMAT
 62
     0
100
AcDbLine
 10
0.0
 20
5.0
 30
0.0
 11
0.0
 21
79.5
 31
0.0
  0
LINE
  5
F5
330
ED
100
AcDbEntity
  8
FORMAT
 62
     0
100
AcDbLine
 10
-5.0
 20
0.0
 30
0.0
 11
-79.5
 21
0.0
 31
0.0
  0
LINE
  5
F6
330
ED
100
AcDbEntity
  8
FORMAT
 62
     0
100
AcDbLine
 10
0.0
 20
-5.0
 30
0.0
 11
0.0
 21
-79.5
 31
0.0
  0
LINE
  5
F7
330
ED
100
AcDbEntity
  8
FORMAT
 62
     0
100
AcDbLine
 10
5.0
 20
0.0
 30
0.0
 11
79.5
 21
0.0
 31
0.0
  0
ENDBLK
  5
EF
330
ED
100
AcDbEntity
  8
0
100
AcDbBlockEnd
  0
BLOCK
  5
10C
330
10B
100
AcDbEntity
  8
0
100
AcDbBlockBegin
  2
SW_CENTERMARKSYMBOL_3
 70
     0
 10
0.0
 20
0.0
 30
0.0
  3
SW_CENTERMARKSYMBOL_3
  1

  0
LINE
  5
10E
330
10B
100
AcDbEntity
  8
FORMAT
 62
     0
100
AcDbLine
 10
0.0
 20
0.0
 30
0.0
 11
0.0
 21
2.5
 31
0.0
  0
LINE
  5
10F
330
10B
100
AcDbEntity
  8
FORMAT
 62
     0
100
AcDbLine
 10
0.0
 20
0.0
 30
0.0
 11
-2.5
 21
0.0
 31
0.0
  0
LINE
  5
110
330
10B
100
AcDbEntity
  8
FORMAT
 62
     0
100
AcDbLine
 10
0.0
 20
0.0
 30
0.0
 11
0.0
 21
-2.5
 31
0.0
  0
LINE
  5
111
330
10B
100
AcDbEntity
  8
FORMAT
 62
     0
100
AcDbLine
 10
0.0
 20
0.0
 30
0.0
 11
2.5
 21
0.0
 31
0.0
  0
LINE
  5
112
330
10B
100
AcDbEntity
  8
FORMAT
 62
     0
100
AcDbLine
 10
0.0
 20
5.0
 30
0.0
 11
0.0
 21
79.5
 31
0.0
  0
LINE
  5
113
330
10B
100
AcDbEntity
  8
FORMAT
 62
     0
100
AcDbLine
 10
-5.0
 20
0.0
 30
0.0
 11
-79.5
 21
0.0
 31
0.0
  0
LINE
  5
114
330
10B
100
AcDbEntity
  8
FORMAT
 62
     0
100
AcDbLine
 10
0.0
 20
-5.0
 30
0.0
 11
0.0
 21
-79.5
 31
0.0
  0
LINE
  5
115
330
10B
100
AcDbEntity
  8
FORMAT
 62
     0
100
AcDbLine
 10
5.0
 20
0.0
 30
0.0
 11
79.5
 21
0.0
 31
0.0
  0
ENDBLK
  5
10D
330
10B
100
AcDbEntity
  8
0
100
AcDbBlockEnd
  0
ENDSEC
  0
SECTION
  2
ENTITIES
  0
LINE
  5
83
330
1F
100
AcDbEntity
  8
0
  6
Continuous
 62
     7
370
    25
100
AcDbLine
 10
167.3870058973
 20
264.4490954589
 30
0.0
 11
90.8214219952
 21
187.8835115568
 31
0.0
  0
LINE
  5
84
330
1F
100
AcDbEntity
  8
0
  6
Continuous
 62
     7
370
    25
100
AcDbLine
 10
199.7158662979
 20
78.989067254
 30
0.0
 11
276.2814502
 21
155.5546511561
 31
0.0
  0
ARC
  5
85
330
1F
100
AcDbEntity
  8
0
  6
Continuous
 62
     7
370
    25
100
AcDbCircle
 10
200.4229730791
 20
78.2819604729
 30
0.0
 40
1.0
100
AcDbArc
 50
135.0
 51
180.0
  0
ARC
  5
86
330
1F
100
AcDbEntity
  8
0
  6
Continuous
 62
     7
370
    25
100
AcDbCircle
 10
200.4229730791
 20
78.2819604729
 30
0.0
 40
155.0
100
AcDbArc
 50
135.0
 51
180.0
  0
LINE
  5
87
330
1F
100
AcDbEntity
  8
0
  6
Continuous
 62
     7
370
    25
100
AcDbLine
 10
45.4229730791
 20
78.2819604729
 30
0.0
 11
45.4229730791
 21
-29.9981266925
 31
0.0
  0
LINE
  5
88
330
1F
100
AcDbEntity
  8
0
  6
Continuous
 62
     7
370
    25
100
AcDbLine
 10
199.4229730791
 20
-29.9981266925
 30
0.0
 11
199.4229730791
 21
78.2819604729
 31
0.0
  0
CIRCLE
  5
89
330
1F
100
AcDbEntity
  8
0
  6
Continuous
 62
     7
370
    25
100
AcDbCircle
 10
122.4229730791
 20
-19.9981266925
 30
0.0
 40
5.0
  0
CIRCLE
  5
8A
330
1F
100
AcDbEntity
  8
0
  6
Continuous
 62
     7
370
    25
100
AcDbCircle
 10
122.4229730791
 20
-19.9981266925
 30
0.0
 40
7.0
  0
CIRCLE
  5
8B
330
1F
100
AcDbEntity
  8
0
  6
Continuous
 62
     7
370
    25
100
AcDbCircle
 10
214.7631602368
 20
202.9308054956
 30
0.0
 40
7.0
  0
CIRCLE
  5
8C
330
1F
100
AcDbEntity
  8
0
  6
Continuous
 62
     7
370
    25
100
AcDbCircle
 10
214.7631602368
 20
202.9308054956
 30
0.0
 40
5.0
  0
LINE
  5
8D
330
1F
100
AcDbEntity
  8
0
  6
Continuous
 62
     7
370
    25
100
AcDbLine
 10
221.8342280486
 20
210.0018733075
 30
0.0
 11
276.2814502
 21
155.5546511561
 31
0.0
  0
LINE
  5
8E
330
1F
100
AcDbEntity
  8
0
  6
Continuous
 62
     7
370
    25
100
AcDbLine
 10
167.3870058973
 20
264.4490954589
 30
0.0
 11
221.8342280486
 21
210.0018733075
 31
0.0
  0
LINE
  5
8F
330
1F
100
AcDbEntity
  8
0
  6
Continuous
 62
     7
370
    25
100
AcDbLine
 10
122.4229730791
 20
-29.9981266925
 30
0.0
 11
199.4229730791
 21
-29.9981266925
 31
0.0
  0
LINE
  5
90
330
1F
100
AcDbEntity
  8
0
  6
Continuous
 62
     7
370
    25
100
AcDbLine
 10
45.4229730791
 20
-29.9981266925
 30
0.0
 11
122.4229730791
 21
-29.9981266925
 31
0.0
  0
LINE
  5
91
330
1F
100
AcDbEntity
  8
0
  6
Continuous
 62
     1
370
    25
100
AcDbLine
 10
145.2686441465
 20
133.4362894054
 30
0.0
 11
199.7158662979
 21
78.989067254
 31
0.0
  0
LINE
  5
92
330
1F
100
AcDbEntity
  8
0
  6
Continuous
 62
     1
370
    25
100
AcDbLine
 10
90.8214219952
 20
187.8835115568
 30
0.0
 11
145.2686441465
 21
133.4362894054
 31
0.0
  0
LINE
  5
93
330
1F
100
AcDbEntity
  8
0
  6
Continuous
 62
     1
370
    25
100
AcDbLine
 10
122.4229730791
 20
78.2819604729
 30
0.0
 11
199.4229730791
 21
78.2819604729
 31
0.0
  0
LINE
  5
94
330
1F
100
AcDbEntity
  8
0
  6
Continuous
 62
     1
370
    25
100
AcDbLine
 10
45.4229730791
 20
78.2819604729
 30
0.0
 11
122.4229730791
 21
78.2819604729
 31
0.0
  0
LINE
  5
95
330
1F
100
AcDbEntity
  8
0
  6
Continuous
 62
     7
370
    25
100
AcDbLine
 10
-222.3422301088
 20
195.9308054956
 30
0.0
 11
-222.3422301088
 21
133.4362894054
 31
0.0
  0
LINE
  5
96
330
1F
100
AcDbEntity
  8
0
  6
Continuous
 62
     7
370
    25
100
AcDbLine
 10
-222.3422301088
 20
210.0018733075
 30
0.0
 11
-222.3422301088
 21
207.8171239996
 31
0.0
  0
LINE
  5
97
330
1F
100
AcDbEntity
  8
0
  6
Continuous
 62
     7
370
    25
100
AcDbLine
 10
-68.3422301088
 20
133.4362894054
 30
0.0
 11
-68.3422301088
 21
210.0018733075
 31
0.0
  0
LINE
  5
98
330
1F
100
AcDbEntity
  8
0
  6
Continuous
 62
     7
370
    25
100
AcDbLine
 10
-222.3422301088
 20
209.9308054956
 30
0.0
 11
-237.3422301088
 21
209.9308054956
 31
0.0
  0
LINE
  5
99
330
1F
100
AcDbEntity
  8
0
  6
Continuous
 62
     7
370
    25
100
AcDbLine
 10
-237.3422301088
 20
195.9308054956
 30
0.0
 11
-222.1822987408
 21
195.9308054956
 31
0.0
  0
LINE
  5
9A
330
1F
100
AcDbEntity
  8
0
  6
Continuous
 62
     7
370
    25
100
AcDbLine
 10
-222.3422301088
 20
133.4362894054
 30
0.0
 11
-222.3422301088
 21
78.2819604729
 31
0.0
  0
LINE
  5
9B
330
1F
100
AcDbEntity
  8
0
  6
Continuous
 62
     7
370
    25
100
AcDbLine
 10
-68.3422301088
 20
78.2819604729
 30
0.0
 11
-68.3422301088
 21
133.4362894054
 31
0.0
  0
LINE
  5
9C
330
1F
100
AcDbEntity
  8
0
  6
Continuous
 62
     7
370
    25
100
AcDbLine
 10
-222.3422301088
 20
-26.9092118719
 30
0.0
 11
-222.3422301088
 21
-29.9981266925
 31
0.0
  0
LINE
  5
9D
330
1F
100
AcDbEntity
  8
0
  6
Continuous
 62
     7
370
    25
100
AcDbLine
 10
-222.3422301088
 20
78.2819604729
 30
0.0
 11
-222.3422301088
 21
-13.0031381794
 31
0.0
  0
LINE
  5
9E
330
1F
100
AcDbEntity
  8
0
  6
Continuous
 62
     7
370
    25
100
AcDbLine
 10
-68.3422301088
 20
-29.9981266925
 30
0.0
 11
-68.3422301088
 21
78.2819604729
 31
0.0
  0
LINE
  5
9F
330
1F
100
AcDbEntity
  8
0
  6
Continuous
 62
     7
370
    25
100
AcDbLine
 10
-222.3417985792
 20
-12.9981266925
 30
0.0
 11
-237.3422301088
 21
-12.9981266925
 31
0.0
  0
LINE
  5
A0
330
1F
100
AcDbEntity
  8
0
  6
Continuous
 62
     7
370
    25
100
AcDbLine
 10
-237.3422301088
 20
-26.9981266925
 30
0.0
 11
-222.3342448888
 21
-26.9981266925
 31
0.0
  0
LWPOLYLINE
  5
A1
330
1F
100
AcDbEntity
  8
0
  6
Continuous
 62
     7
370
    25
100
AcDbPolyline
 90
      105
 70
   128
 43
0.0
 10
-222.3422301088
 20
210.0018733075
 10
-222.201747784
 20
206.7144318452
 10
-221.7808134144
 20
203.4389859003
 10
-221.0809629438
 20
200.1874872197
 10
-220.1047500506
 20
196.9718001697
 10
-218.85573683
 20
193.8036584435
 10
-217.3384807956
 20
190.6946222467
 10
-215.5585182502
 20
187.6560361152
 10
-213.5223440841
 20
184.6989875203
 10
-211.237388076
 20
181.8342664117
 10
-208.7119877826
 20
179.0723258459
 10
-205.9553581157
 20
176.4232438446
 10
-202.977557718
 20
173.8966866207
 10
-199.7894522602
 20
171.5018733075
 10
-196.4026747934
 20
169.2475423191
 10
-192.8295833012
 20
167.1419194649
 10
-189.0832156071
 20
165.1926879342
 10
-185.1772418005
 20
163.4069602615
 10
-181.1259143562
 20
161.7912523735
 10
-176.9440161287
 20
160.351459813
 10
-172.6468064111
 20
159.0928362269
 10
-168.2499652557
 20
158.0199741962
 10
-163.769536259
 20
157.1367884781
 10
-159.2218680205
 20
156.4465017214
 10
-154.6235544885
 20
155.9516327079
 10
-149.9913744104
 20
155.6539871606
 10
-145.3422301088
 20
155.5546511561
 10
-140.6930858073
 20
155.6539871606
 10
-136.0609057292
 20
155.9516327079
 10
-131.4625921972
 20
156.4465017214
 10
-126.9149239587
 20
157.1367884781
 10
-122.434494962
 20
158.0199741962
 10
-118.0376538066
 20
159.0928362269
 10
-113.740444089
 20
160.351459813
 10
-109.5585458615
 20
161.7912523735
 10
-105.5072184172
 20
163.4069602615
 10
-101.6012446105
 20
165.1926879342
 10
-97.8548769164
 20
167.1419194649
 10
-94.2817854243
 20
169.2475423191
 10
-90.8950079575
 20
171.5018733075
 10
-87.7069024997
 20
173.8966866207
 10
-84.7291021019
 20
176.4232438446
 10
-81.972472435
 20
179.0723258459
 10
-79.4470721416
 20
181.8342664117
 10
-77.1621161335
 20
184.6989875203
 10
-75.1259419674
 20
187.6560361152
 10
-73.3459794221
 20
190.6946222467
 10
-71.8287233877
 20
193.8036584435
 10
-70.579710167
 20
196.9718001697
 10
-69.6034972739
 20
200.1874872197
 10
-68.9036468033
 20
203.4389859003
 10
-68.4827124336
 20
206.7144318452
 10
-68.3422301088
 20
210.0018733075
 10
-68.4827124336
 20
213.2893147698
 10
-68.9036468033
 20
216.5647607148
 10
-69.6034972739
 20
219.8162593953
 10
-70.579710167
 20
223.0319464453
 10
-71.8287233877
 20
226.2000881715
 10
-73.3459794221
 20
229.3091243683
 10
-75.1259419674
 20
232.3477104998
 10
-77.1621161335
 20
235.3047590947
 10
-79.4470721416
 20
238.1694802033
 10
-81.972472435
 20
240.9314207691
 10
-84.7291021019
 20
243.5805027704
 10
-87.7069024997
 20
246.1070599943
 10
-90.8950079575
 20
248.5018733075
 10
-94.2817854243
 20
250.7562042959
 10
-97.8548769164
 20
252.8618271501
 10
-101.6012446105
 20
254.8110586808
 10
-105.5072184172
 20
256.5967863535
 10
-109.5585458615
 20
258.2124942415
 10
-113.740444089
 20
259.652286802
 10
-118.0376538066
 20
260.9109103881
 10
-122.434494962
 20
261.9837724188
 10
-126.9149239587
 20
262.8669581369
 10
-131.4625921972
 20
263.5572448936
 10
-136.0609057292
 20
264.0521139071
 10
-140.6930858073
 20
264.3497594544
 10
-145.3422301088
 20
264.4490954589
 10
-149.9913744104
 20
264.3497594544
 10
-154.6235544885
 20
264.0521139071
 10
-159.2218680205
 20
263.5572448936
 10
-163.769536259
 20
262.8669581369
 10
-168.2499652557
 20
261.9837724188
 10
-172.6468064111
 20
260.9109103881
 10
-176.9440161287
 20
259.652286802
 10
-181.1259143562
 20
258.2124942415
 10
-185.1772418005
 20
256.5967863535
 10
-189.0832156071
 20
254.8110586808
 10
-192.8295833012
 20
252.8618271501
 10
-196.4026747934
 20
250.7562042959
 10
-199.7894522602
 20
248.5018733075
 10
-202.977557718
 20
246.1070599943
 10
-205.9553581157
 20
243.5805027704
 10
-208.7119877826
 20
240.9314207691
 10
-211.237388076
 20
238.1694802033
 10
-213.5223440841
 20
235.3047590947
 10
-215.5585182502
 20
232.3477104998
 10
-217.3384807956
 20
229.3091243683
 10
-218.85573683
 20
226.2000881715
 10
-220.1047500506
 20
223.0319464453
 10
-221.0809629438
 20
219.8162593953
 10
-221.7808134144
 20
216.5647607147
 10
-222.201747784
 20
213.2893147698
 10
-222.3422301088
 20
210.0018733075
  0
LWPOLYLINE
  5
A2
330
1F
100
AcDbEntity
  8
0
  6
Continuous
 62
     7
370
    25
100
AcDbPolyline
 90
       94
 70
   128
 43
0.0
 10
-207.8422301088
 20
210.0018733075
 10
-207.6996435263
 20
212.985410795
 10
-207.2725343687
 20
215.9553350852
 10
-206.5628514371
 20
218.8980950948
 10
-205.573832852
 20
221.8002636849
 10
-204.3099912782
 20
224.6485989257
 10
-202.7770933351
 20
227.430104517
 10
-200.9821332844
 20
230.1320890865
 10
-198.933301117
 20
232.7422240985
 10
-196.6399451843
 20
235.2486001056
 10
-194.1125295433
 20
237.6397810889
 10
-191.362586212
 20
239.9048566381
 10
-188.4026625511
 20
242.0334917328
 10
-185.2462640132
 20
244.0159738995
 10
-181.907792521
 20
245.8432575266
 10
-178.4024807543
 20
247.5070051381
 10
-174.7463226465
 20
248.9996254353
 10
-170.9560004086
 20
250.314307934
 10
-167.0488084116
 20
251.4450540396
 10
-163.0425742765
 20
252.3867044169
 10
-158.9555775306
 20
253.1349625313
 10
-154.8064662029
 20
253.6864142525
 10
-150.6141717365
 20
254.0385434329
 10
-146.3978226097
 20
254.1897433878
 10
-142.1766570564
 20
254.1393242265
 10
-137.9699352869
 20
253.8875159999
 10
-133.7968516078
 20
253.4354676514
 10
-129.6764468427
 20
252.7852417739
 10
-125.6275214535
 20
251.9398051988
 10
-121.6685497582
 20
250.9030154594
 10
-117.8175956365
 20
249.6796031894
 10
-114.0922301088
 20
248.2751505385
 10
-110.5094511637
 20
246.6960657019
 10
-107.0856061996
 20
244.9495536817
 10
-103.8363174359
 20
243.0435834114
 10
-100.7764106319
 20
240.9868513965
 10
-97.9198474405
 20
238.7887420332
 10
-95.2796617045
 20
236.4592847905
 10
-92.8678999857
 20
234.0091084475
 10
-90.6955665998
 20
231.4493925968
 10
-88.7725734057
 20
228.7918166348
 10
-87.1076945803
 20
226.0485064711
 10
-85.7085265838
 20
223.2319792007
 10
-84.581453499
 20
220.3550859916
 10
-83.7316179017
 20
217.4309534476
 10
-83.1628973968
 20
214.4729237149
 10
-82.8778869257
 20
211.4944936047
 10
-82.8778869257
 20
208.5092530103
 10
-83.1628973968
 20
205.5308229001
 10
-83.7316179017
 20
202.5727931674
 10
-84.581453499
 20
199.6486606234
 10
-85.7085265838
 20
196.7717674143
 10
-87.1076945803
 20
193.9552401439
 10
-88.7725734057
 20
191.2119299802
 10
-90.6955665998
 20
188.5543540182
 10
-92.8678999857
 20
185.9946381675
 10
-95.2796617045
 20
183.5444618245
 10
-97.9198474405
 20
181.2150045818
 10
-100.7764106319
 20
179.0168952185
 10
-103.8363174359
 20
176.9601632036
 10
-107.0856061996
 20
175.0541929333
 10
-110.5094511637
 20
173.3076809131
 10
-114.0922301088
 20
171.7285960765
 10
-117.8175956365
 20
170.3241434256
 10
-121.6685497582
 20
169.1007311556
 10
-125.6275214535
 20
168.0639414162
 10
-129.6764468427
 20
167.2185048411
 10
-133.7968516078
 20
166.5682789636
 10
-137.9699352869
 20
166.1162306151
 10
-142.1766570564
 20
165.8644223885
 10
-146.3978226097
 20
165.8140032272
 10
-150.6141717365
 20
165.9652031821
 10
-154.8064662029
 20
166.3173323625
 10
-158.9555775306
 20
166.8687840837
 10
-163.0425742765
 20
167.6170421981
 10
-167.0488084116
 20
168.5586925754
 10
-170.9560004086
 20
169.689438681
 10
-174.7463226465
 20
171.0041211797
 10
-178.4024807543
 20
172.4967414769
 10
-181.907792521
 20
174.1604890884
 10
-185.2462640132
 20
175.9877727156
 10
-188.4026625511
 20
177.9702548822
 10
-191.362586212
 20
180.0988899769
 10
-194.1125295433
 20
182.3639655261
 10
-196.6399451843
 20
184.7551465094
 10
-198.933301117
 20
187.2615225165
 10
-200.9821332844
 20
189.8716575285
 10
-202.7770933351
 20
192.573642098
 10
-204.3099912782
 20
195.3551476893
 10
-205.573832852
 20
198.2034829301
 10
-206.5628514371
 20
201.1056515202
 10
-207.2725343687
 20
204.0484115298
 10
-207.6996435263
 20
207.01833582
 10
-207.8422301088
 20
210.0018733075
  0
SPLINE
  5
A3
330
1F
100
AcDbEntity
  8
0
  6
Continuous
 62
     7
370
    25
100
AcDbSpline
210
0.0
220
0.0
230
1.0
 70
     8
 71
     3
 72
    15
 73
    11
 74
     0
 42
0.00000001
 43
0.00000001
 40
0.0
 40
0.0
 40
0.0
 40
0.0
 40
0.0478905889381353
 40
0.1913080921678921
 40
0.334511670724682
 40
0.4771957728210751
 40
0.6198670960085139
 40
0.7630501746412715
 40
0.9064730859548669
 40
1.0
 40
1.0
 40
1.0
 40
1.0
 10
-222.1822987407916
 20
196.0188902324452
 30
0.0
 10
-222.170538769664
 20
195.9946850391757
 30
0.0
 10
-222.1235613218971
 20
195.8979927777607
 30
0.0
 10
-222.0478137882126
 20
196.5426229314014
 30
0.0
 10
-222.0109179287322
 20
197.8897426162638
 30
0.0
 10
-222.0488706893731
 20
199.8531352947747
 30
0.0
 10
-222.1459467811126
 20
202.1507445420307
 30
0.0
 10
-222.2565668312616
 20
204.5218073140986
 30
0.0
 10
-222.334687140394
 20
206.5345534361285
 30
0.0
 10
-222.334301433813
 20
207.454167989664
 30
0.0
 10
-222.3341491908383
 20
207.8171507906555
 30
0.0
  0
LINE
  5
A4
330
1F
100
AcDbEntity
  8
0
  6
Continuous
 62
     7
370
    25
100
AcDbLine
 10
-237.3422301088
 20
209.9308054956
 30
0.0
 11
-237.3422301088
 21
195.9308054956
 31
0.0
  0
LINE
  5
A5
330
1F
100
AcDbEntity
  8
0
  6
Continuous
 62
     7
370
    25
100
AcDbLine
 10
-222.3422301088
 20
-29.9981266925
 30
0.0
 11
-68.3422301088
 21
-29.9981266925
 31
0.0
  0
SPLINE
  5
A6
330
1F
100
AcDbEntity
  8
0
  6
Continuous
 62
     7
370
    25
100
AcDbSpline
210
0.0
220
0.0
230
1.0
 70
     8
 71
     3
 72
    17
 73
    13
 74
     0
 42
0.00000001
 43
0.00000001
 40
0.0
 40
0.0
 40
0.0
 40
0.0
 40
0.0364263583709264
 40
0.143333767001344
 40
0.2504008653275901
 40
0.3578538106122021
 40
0.4653195514835098
 40
0.5724007511775523
 40
0.6793013921937725
 40
0.7865058606215101
 40
0.8940251907411252
 40
1.0
 40
1.0
 40
1.0
 40
1.0
 10
-222.3342214855434
 20
-26.90921187191253
 30
0.0
 10
-222.3364239334665
 20
-26.93369704388634
 30
0.0
 10
-222.3450903270223
 20
-27.03004353833811
 30
0.0
 10
-222.2866666964087
 20
-26.38641929547878
 30
0.0
 10
-222.1833913243716
 20
-25.04500952142192
 30
0.0
 10
-222.0749867165595
 20
-23.08001084330281
 30
0.0
 10
-222.0150128390979
 20
-20.77966195935949
 30
0.0
 10
-222.0282828799925
 20
-18.3921071408159
 30
0.0
 10
-222.1094131334983
 20
-16.18519217074706
 30
0.0
 10
-222.221180244925
 20
-14.41924384060665
 30
0.0
 10
-222.3210573658918
 20
-13.22470703669014
 30
0.0
 10
-222.3349103906355
 20
-13.07663739582704
 30
0.0
 10
-222.3417867932344
 20
-13.00313817944022
 30
0.0
  0
LINE
  5
A7
330
1F
100
AcDbEntity
  8
0
  6
Continuous
 62
     7
370
    25
100
AcDbLine
 10
-237.3422301088
 20
-12.9981266925
 30
0.0
 11
-237.3422301088
 21
-26.9981266925
 31
0.0
  0
LWPOLYLINE
  5
A8
330
1F
100
AcDbEntity
  8
0
  6
Continuous
 62
     1
370
    25
100
AcDbPolyline
 90
       54
 70
   128
 43
0.0
 10
-222.3422301088
 20
133.4362894054
 10
-222.201747784
 20
130.1488479431
 10
-221.7808134144
 20
126.8734019982
 10
-221.0809629438
 20
123.6219033177
 10
-220.1047500506
 20
120.4062162676
 10
-218.85573683
 20
117.2380745414
 10
-217.3384807956
 20
114.1290383446
 10
-215.5585182502
 20
111.0904522132
 10
-213.5223440841
 20
108.1334036183
 10
-211.237388076
 20
105.2686825096
 10
-208.7119877826
 20
102.5067419438
 10
-205.9553581157
 20
99.8576599425
 10
-202.977557718
 20
97.3311027186
 10
-199.7894522602
 20
94.9362894054
 10
-196.4026747934
 20
92.6819584171
 10
-192.8295833012
 20
90.5763355628
 10
-189.0832156071
 20
88.6271040321
 10
-185.1772418005
 20
86.8413763594
 10
-181.1259143562
 20
85.2256684714
 10
-176.9440161287
 20
83.7858759109
 10
-172.6468064111
 20
82.5272523248
 10
-168.2499652557
 20
81.4543902941
 10
-163.769536259
 20
80.571204576
 10
-159.2218680205
 20
79.8809178194
 10
-154.6235544885
 20
79.3860488058
 10
-149.9913744104
 20
79.0884032585
 10
-145.3422301088
 20
78.989067254
 10
-140.6930858073
 20
79.0884032585
 10
-136.0609057292
 20
79.3860488058
 10
-131.4625921972
 20
79.8809178194
 10
-126.9149239587
 20
80.571204576
 10
-122.434494962
 20
81.4543902941
 10
-118.0376538066
 20
82.5272523248
 10
-113.740444089
 20
83.7858759109
 10
-109.5585458615
 20
85.2256684714
 10
-105.5072184172
 20
86.8413763594
 10
-101.6012446105
 20
88.6271040321
 10
-97.8548769164
 20
90.5763355628
 10
-94.2817854243
 20
92.6819584171
 10
-90.8950079575
 20
94.9362894054
 10
-87.7069024997
 20
97.3311027186
 10
-84.7291021019
 20
99.8576599425
 10
-81.972472435
 20
102.5067419438
 10
-79.4470721416
 20
105.2686825096
 10
-77.1621161335
 20
108.1334036183
 10
-75.1259419674
 20
111.0904522132
 10
-73.3459794221
 20
114.1290383446
 10
-71.8287233877
 20
117.2380745414
 10
-70.579710167
 20
120.4062162676
 10
-69.6034972739
 20
123.6219033177
 10
-68.9036468033
 20
126.8734019982
 10
-68.4827124336
 20
130.1488479431
 10
-68.3422301088
 20
133.4362894054
 10
-68.3422301088
 20
133.4362894054
  0
ARC
  5
A9
330
1F
100
AcDbEntity
  8
0
  6
Continuous
 62
     1
370
    25
100
AcDbCircle
 10
-145.3422301088
 20
92.7355484872
 30
0.0
 40
84.9323504053333
100
AcDbArc
 50
68.4282948669
 51
111.5717051331
  0
LINE
  5
AA
330
1F
100
AcDbEntity
  8
0
  6
Continuous
 62
     1
370
    25
100
AcDbLine
 10
-222.3422301088
 20
78.2819604729
 30
0.0
 11
-68.3422301088
 21
78.2819604729
 31
0.0
  0
INSERT
  5
B6
330
1F
100
AcDbEntity
  8
FORMAT
 62
     7
100
AcDbBlockReference
  2
SW_CENTERMARKSYMBOL_0
 10
-145.3422301088
 20
122.0018733075
 30
0.0
  0
LINE
  5
B7
330
1F
100
AcDbEntity
  8
0
  6
Continuous
 62
     7
370
    25
100
AcDbLine
 10
129.4229730791
 20
470.6782897557
 30
0.0
 11
129.4229730791
 21
485.9893055554
 31
0.0
  0
LINE
  5
B8
330
1F
100
AcDbEntity
  8
0
  6
Continuous
 62
     7
370
    25
100
AcDbLine
 10
115.4229730791
 20
485.9893055554
 30
0.0
 11
115.4229730791
 21
470.6704636062
 31
0.0
  0
LINE
  5
B9
330
1F
100
AcDbEntity
  8
0
  6
Continuous
 62
     7
370
    25
100
AcDbLine
 10
145.2686441465
 20
470.9893055554
 30
0.0
 11
129.4229730791
 21
470.9893055554
 31
0.0
  0
LINE
  5
BA
330
1F
100
AcDbEntity
  8
0
  6
Continuous
 62
     7
370
    25
100
AcDbLine
 10
122.4229730791
 20
316.9893055554
 30
0.0
 11
145.2686441465
 21
316.9893055554
 31
0.0
  0
LINE
  5
BB
330
1F
100
AcDbEntity
  8
0
  6
Continuous
 62
     7
370
    25
100
AcDbLine
 10
209.8752647842
 20
470.9893055554
 30
0.0
 11
145.2686441465
 21
470.9893055554
 31
0.0
  0
LINE
  5
BC
330
1F
100
AcDbEntity
  8
0
  6
Continuous
 62
     7
370
    25
100
AcDbLine
 10
221.8342280486
 20
470.9893055554
 30
0.0
 11
221.7631602368
 21
470.9893055554
 31
0.0
  0
LINE
  5
BD
330
1F
100
AcDbEntity
  8
0
  6
Continuous
 62
     7
370
    25
100
AcDbLine
 10
145.2686441465
 20
316.9893055554
 30
0.0
 11
221.8342280486
 21
316.9893055554
 31
0.0
  0
LINE
  5
BE
330
1F
100
AcDbEntity
  8
0
  6
Continuous
 62
     7
370
    25
100
AcDbLine
 10
221.7631602368
 20
470.8293477834
 30
0.0
 11
221.7631602368
 21
485.9893055554
 31
0.0
  0
LINE
  5
BF
330
1F
100
AcDbEntity
  8
0
  6
Continuous
 62
     7
370
    25
100
AcDbLine
 10
207.7631602368
 20
485.9893055554
 30
0.0
 11
207.7631602368
 21
470.9893055554
 31
0.0
  0
CIRCLE
  5
C0
330
1F
100
AcDbEntity
  8
0
  6
Continuous
 62
     7
370
    25
100
AcDbCircle
 10
122.4229730791
 20
393.9893055554
 30
0.0
 40
62.5
  0
CIRCLE
  5
C1
330
1F
100
AcDbEntity
  8
0
  6
Continuous
 62
     7
370
    25
100
AcDbCircle
 10
122.4229730791
 20
393.9893055554
 30
0.0
 40
77.0
  0
LINE
  5
C2
330
1F
100
AcDbEntity
  8
0
  6
Continuous
 62
     7
370
    25
100
AcDbLine
 10
129.4229730791
 20
485.9893055554
 30
0.0
 11
115.4229730791
 21
485.9893055554
 31
0.0
  0
LWPOLYLINE
  5
C3
330
1F
100
AcDbEntity
  8
0
  6
Continuous
 62
     7
370
    25
100
AcDbPolyline
 90
       54
 70
   128
 43
0.0
 10
221.8342280486
 20
470.9893055554
 10
225.1216695109
 20
470.8488232306
 10
228.3971154559
 20
470.427888861
 10
231.6486141364
 20
469.7280383904
 10
234.8643011864
 20
468.7518254972
 10
238.0324429126
 20
467.5028122766
 10
241.1414791094
 20
465.9855562422
 10
244.1800652409
 20
464.2055936968
 10
247.1371138358
 20
462.1694195307
 10
250.0018349445
 20
459.8844635227
 10
252.7637755103
 20
457.3590632293
 10
255.4128575116
 20
454.6024335623
 10
257.9394147355
 20
451.6246331646
 10
260.3342280486
 20
448.4365277068
 10
262.588559037
 20
445.04975024
 10
264.6941818912
 20
441.4766587478
 10
266.6434134219
 20
437.7302910537
 10
268.4291410946
 20
433.8243172471
 10
270.0448489826
 20
429.7729898028
 10
271.4846415432
 20
425.5910915753
 10
272.7432651293
 20
421.2938818577
 10
273.81612716
 20
416.8970407023
 10
274.6993128781
 20
412.4166117056
 10
275.3895996347
 20
407.8689434671
 10
275.8844686483
 20
403.2706299351
 10
276.1821141955
 20
398.638449857
 10
276.2814502
 20
393.9893055554
 10
276.1821141955
 20
389.3401612539
 10
275.8844686483
 20
384.7079811758
 10
275.3895996347
 20
380.1096676438
 10
274.6993128781
 20
375.5619994053
 10
273.81612716
 20
371.0815704086
 10
272.7432651293
 20
366.6847292532
 10
271.4846415432
 20
362.3875195356
 10
270.0448489826
 20
358.2056213081
 10
268.4291410946
 20
354.1542938638
 10
266.6434134219
 20
350.2483200571
 10
264.6941818912
 20
346.501952363
 10
262.588559037
 20
342.9288608709
 10
260.3342280486
 20
339.5420834041
 10
257.9394147355
 20
336.3539779463
 10
255.4128575116
 20
333.3761775485
 10
252.7637755103
 20
330.6195478816
 10
250.0018349445
 20
328.0941475882
 10
247.1371138358
 20
325.8091915801
 10
244.1800652409
 20
323.773017414
 10
241.1414791094
 20
321.9930548687
 10
238.0324429126
 20
320.4757988343
 10
234.8643011864
 20
319.2267856136
 10
231.6486141364
 20
318.2505727205
 10
228.3971154559
 20
317.5507222499
 10
225.1216695109
 20
317.1297878802
 10
221.8342280486
 20
316.9893055554
 10
221.8342280486
 20
316.9893055554
  0
SPLINE
  5
C4
330
1F
100
AcDbEntity
  8
0
  6
Continuous
 62
     7
370
    25
100
AcDbSpline
210
0.0
220
0.0
230
1.0
 70
     8
 71
     3
 72
    15
 73
    11
 74
     0
 42
0.00000001
 43
0.00000001
 40
0.0
 40
0.0
 40
0.0
 40
0.0
 40
0.0956323412795274
 40
0.2382308500147526
 40
0.381227701415865
 40
0.5246462778153053
 40
0.6678509279410155
 40
0.8105360977191716
 40
0.9532084884927507
 40
1.0
 40
1.0
 40
1.0
 40
1.0
 10
209.8752360750481
 20
470.981428762329
 30
0.0
 10
210.2481022623307
 20
470.981366488864
 30
0.0
 10
211.1769536064431
 20
470.981211358703
 30
0.0
 10
213.1963194128283
 20
470.9025803781474
 30
0.0
 10
215.5667129522817
 20
470.7919094209927
 30
0.0
 10
217.8681490247191
 20
470.6949543088372
 30
0.0
 10
219.8285977152081
 20
470.6579961829976
 30
0.0
 10
221.1628435988614
 20
470.6958704614159
 30
0.0
 10
221.7982848296523
 20
470.7714025439665
 30
0.0
 10
221.7001696122457
 20
470.8178714523415
 30
0.0
 10
221.6759382981587
 20
470.8293477833723
 30
0.0
  0
ARC
  5
C5
330
1F
100
AcDbEntity
  8
0
  6
Continuous
 62
     7
370
    25
100
AcDbCircle
 10
264.2153986871
 20
393.9893055554
 30
0.0
 40
86.58595961494316
100
AcDbArc
 50
164.8044968084
 51
195.1955031916
  0
LINE
  5
C6
330
1F
100
AcDbEntity
  8
0
  6
Continuous
 62
     7
370
    25
100
AcDbLine
 10
221.7631602368
 20
485.9893055554
 30
0.0
 11
207.7631602368
 21
485.9893055554
 31
0.0
  0
LWPOLYLINE
  5
C7
330
1F
100
AcDbEntity
  8
0
  6
Continuous
 62
     1
370
    25
100
AcDbPolyline
 90
       54
 70
   128
 43
0.0
 10
145.2686441465
 20
470.9893055554
 10
148.5560856088
 20
470.8488232306
 10
151.8315315538
 20
470.427888861
 10
155.0830302343
 20
469.7280383904
 10
158.2987172843
 20
468.7518254972
 10
161.4668590105
 20
467.5028122766
 10
164.5758952073
 20
465.9855562422
 10
167.6144813388
 20
464.2055936968
 10
170.5715299337
 20
462.1694195307
 10
173.4362510424
 20
459.8844635227
 10
176.1981916082
 20
457.3590632293
 10
178.8472736095
 20
454.6024335623
 10
181.3738308334
 20
451.6246331646
 10
183.7686441465
 20
448.4365277068
 10
186.0229751349
 20
445.04975024
 10
188.1285979891
 20
441.4766587478
 10
190.0778295198
 20
437.7302910537
 10
191.8635571925
 20
433.8243172471
 10
193.4792650805
 20
429.7729898028
 10
194.9190576411
 20
425.5910915753
 10
196.1776812272
 20
421.2938818577
 10
197.2505432579
 20
416.8970407023
 10
198.133728976
 20
412.4166117056
 10
198.8240157326
 20
407.8689434671
 10
199.3188847462
 20
403.2706299351
 10
199.6165302934
 20
398.638449857
 10
199.7158662979
 20
393.9893055554
 10
199.6165302934
 20
389.3401612539
 10
199.3188847462
 20
384.7079811758
 10
198.8240157326
 20
380.1096676438
 10
198.133728976
 20
375.5619994053
 10
197.2505432579
 20
371.0815704086
 10
196.1776812272
 20
366.6847292532
 10
194.9190576411
 20
362.3875195356
 10
193.4792650805
 20
358.2056213081
 10
191.8635571925
 20
354.1542938638
 10
190.0778295198
 20
350.2483200571
 10
188.1285979891
 20
346.501952363
 10
186.0229751349
 20
342.9288608709
 10
183.7686441465
 20
339.5420834041
 10
181.3738308334
 20
336.3539779463
 10
178.8472736095
 20
333.3761775485
 10
176.1981916082
 20
330.6195478816
 10
173.4362510424
 20
328.0941475882
 10
170.5715299337
 20
325.8091915801
 10
167.6144813388
 20
323.773017414
 10
164.5758952073
 20
321.9930548687
 10
161.4668590105
 20
320.4757988343
 10
158.2987172843
 20
319.2267856136
 10
155.0830302343
 20
318.2505727205
 10
151.8315315538
 20
317.5507222499
 10
148.5560856088
 20
317.1297878802
 10
145.2686441465
 20
316.9893055554
 10
145.2686441465
 20
316.9893055554
  0
LWPOLYLINE
  5
C8
330
1F
100
AcDbEntity
  8
0
  6
Continuous
 62
     1
370
    25
100
AcDbPolyline
 90
       42
 70
   128
 43
0.0
 10
135.8056573489
 20
455.039725388
 10
133.4702537691
 20
454.2209082986
 10
130.6219185283
 20
452.9570667248
 10
127.8404129371
 20
451.4241687817
 10
125.1384283675
 20
449.629208731
 10
122.5282933555
 20
447.5803765636
 10
120.0219173484
 20
445.2870206309
 10
117.6307363651
 20
442.7596049899
 10
115.365660816
 20
440.0096616586
 10
113.2370257212
 20
437.0497379977
 10
111.2545435546
 20
433.8933394598
 10
109.4272599275
 20
430.5548679676
 10
107.7635123159
 20
427.0495562009
 10
106.2708920188
 20
423.3933980931
 10
104.95620952
 20
419.6030758552
 10
103.8254634144
 20
415.6958838582
 10
102.8838130371
 20
411.6896497231
 10
102.1355549228
 20
407.6026529772
 10
101.5841032015
 20
403.4535416495
 10
101.2319740211
 20
399.2612471831
 10
101.0807740662
 20
395.0448980563
 10
101.1311932276
 20
390.823732503
 10
101.3830014541
 20
386.6170107335
 10
101.8350498026
 20
382.4439270544
 10
102.4852756802
 20
378.3235222893
 10
103.3307122553
 20
374.2745969001
 10
104.3675019947
 20
370.3156252048
 10
105.5909142646
 20
366.4646710831
 10
106.9953669155
 20
362.7393055554
 10
108.5744517521
 20
359.1565266103
 10
110.3209637724
 20
355.7326816462
 10
112.2269340426
 20
352.4833928825
 10
114.2836660576
 20
349.4234860785
 10
116.4817754208
 20
346.5669228871
 10
118.8112326635
 20
343.9267371511
 10
121.2614090066
 20
341.5149754323
 10
123.8211248572
 20
339.3426420464
 10
126.4787008192
 20
337.4196488523
 10
129.2220109829
 20
335.7547700269
 10
132.0385382533
 20
334.3556020304
 10
134.9154314624
 20
333.2285289456
 10
135.8056573489
 20
332.9388857229
  0
INSERT
  5
D4
330
1F
100
AcDbEntity
  8
FORMAT
 62
     7
100
AcDbBlockReference
  2
SW_CENTERMARKSYMBOL_1
 10
122.4229730791
 20
393.9893055554
 30
0.0
  0
LINE
  5
D5
330
1F
100
AcDbEntity
  8
0
  6
Continuous
 62
     7
370
    25
100
AcDbLine
 10
363.2375090423
 20
78.2819604729
 30
0.0
 11
363.2375090423
 21
-29.9981266925
 31
0.0
  0
LINE
  5
D6
330
1F
100
AcDbEntity
  8
0
  6
Continuous
 62
     7
370
    25
100
AcDbLine
 10
517.2375090423
 20
-13.0031381794
 30
0.0
 11
517.2375090423
 21
78.2819604729
 31
0.0
  0
LINE
  5
D7
330
1F
100
AcDbEntity
  8
0
  6
Continuous
 62
     7
370
    25
100
AcDbLine
 10
517.2375090423
 20
-29.9981266925
 30
0.0
 11
517.2375090423
 21
-26.9092118719
 31
0.0
  0
LINE
  5
D8
330
1F
100
AcDbEntity
  8
0
  6
Continuous
 62
     7
370
    25
100
AcDbLine
 10
517.2375090423
 20
78.2819604729
 30
0.0
 11
517.2375090423
 21
133.4362894054
 31
0.0
  0
LINE
  5
D9
330
1F
100
AcDbEntity
  8
0
  6
Continuous
 62
     7
370
    25
100
AcDbLine
 10
363.2375090423
 20
133.4362894054
 30
0.0
 11
363.2375090423
 21
78.2819604729
 31
0.0
  0
LINE
  5
DA
330
1F
100
AcDbEntity
  8
0
  6
Continuous
 62
     7
370
    25
100
AcDbLine
 10
363.2375090423
 20
210.0018733075
 30
0.0
 11
363.2375090423
 21
133.4362894054
 31
0.0
  0
LINE
  5
DB
330
1F
100
AcDbEntity
  8
0
  6
Continuous
 62
     7
370
    25
100
AcDbLine
 10
517.2375090423
 20
209.9308054956
 30
0.0
 11
517.2375090423
 21
210.0018733075
 31
0.0
  0
LINE
  5
DC
330
1F
100
AcDbEntity
  8
0
  6
Continuous
 62
     7
370
    25
100
AcDbLine
 10
517.2375090423
 20
133.4362894054
 30
0.0
 11
517.2375090423
 21
198.0429100431
 31
0.0
  0
LINE
  5
DD
330
1F
100
AcDbEntity
  8
0
  6
Continuous
 62
     7
370
    25
100
AcDbLine
 10
517.2295238222
 20
-26.9981266925
 30
0.0
 11
532.2375090423
 21
-26.9981266925
 31
0.0
  0
LINE
  5
DE
330
1F
100
AcDbEntity
  8
0
  6
Continuous
 62
     7
370
    25
100
AcDbLine
 10
532.2375090423
 20
-12.9981266925
 30
0.0
 11
517.2370775127
 21
-12.9981266925
 31
0.0
  0
LINE
  5
DF
330
1F
100
AcDbEntity
  8
0
  6
Continuous
 62
     7
370
    25
100
AcDbLine
 10
517.2375090423
 20
195.9308054956
 30
0.0
 11
532.2375090423
 21
195.9308054956
 31
0.0
  0
LINE
  5
E0
330
1F
100
AcDbEntity
  8
0
  6
Continuous
 62
     7
370
    25
100
AcDbLine
 10
532.2375090423
 20
209.9308054956
 30
0.0
 11
517.0781754846
 21
209.9308054956
 31
0.0
  0
LINE
  5
E1
330
1F
100
AcDbEntity
  8
0
  6
Continuous
 62
     7
370
    25
100
AcDbLine
 10
363.2375090423
 20
-29.9981266925
 30
0.0
 11
517.2375090423
 21
-29.9981266925
 31
0.0
  0
SPLINE
  5
E2
330
1F
100
AcDbEntity
  8
0
  6
Continuous
 62
     7
370
    25
100
AcDbSpline
210
0.0
220
0.0
230
1.0
 70
     8
 71
     3
 72
    12
 73
     8
 74
     0
 42
0.00000001
 43
0.00000001
 40
0.0
 40
0.0
 40
0.0
 40
0.0
 40
0.2142337427198851
 40
0.4284459994866395
 40
0.6432154661437064
 40
0.8583511399615914
 40
1.0
 40
1.0
 40
1.0
 40
1.0
 10
516.9186670929997
 20
-19.99812669249966
 30
0.0
 10
516.9258660901995
 20
-20.78301811341255
 30
0.0
 10
516.9402633625967
 20
-22.35272223682512
 30
0.0
 10
517.0413632906511
 20
-24.45069972532529
 30
0.0
 10
517.1509594839488
 20
-26.02037312237147
 30
0.0
 10
517.2297687101404
 20
-26.91394055874516
 30
0.0
 10
517.22957666415
 20
-26.91055570863679
 30
0.0
 10
517.2295004189851
 20
-26.9092118719125
 30
0.0
  0
SPLINE
  5
E3
330
1F
100
AcDbEntity
  8
0
  6
Continuous
 62
     7
370
    25
100
AcDbSpline
210
0.0
220
0.0
230
1.0
 70
     8
 71
     3
 72
    13
 73
     9
 74
     0
 42
0.00000001
 43
0.00000001
 40
0.0
 40
0.0
 40
0.0
 40
0.0
 40
0.0027592616613883
 40
0.2166311267151703
 40
0.4304886307805607
 40
0.6451070001006669
 40
0.8600843929258158
 40
1.0
 40
1.0
 40
1.0
 40
1.0
 10
517.2370657266762
 20
-13.00313817944013
 30
0.0
 10
517.237213352248
 20
-13.00146915355665
 30
0.0
 10
517.2488035157959
 20
-12.87043302794533
 30
0.0
 10
517.206481698653
 20
-13.33405875838905
 30
0.0
 10
517.1165317128887
 20
-14.42164035009474
 30
0.0
 10
517.0027007877595
 20
-16.23003792216769
 30
0.0
 10
516.9295904368167
 20
-18.18806204892045
 30
0.0
 10
516.921755855523
 20
-19.48629991770094
 30
0.0
 10
516.9186670929997
 20
-19.99812669249966
 30
0.0
  0
LWPOLYLINE
  5
E4
330
1F
100
AcDbEntity
  8
0
  6
Continuous
 62
     7
370
    25
100
AcDbPolyline
 90
       53
 70
   128
 43
0.0
 10
363.2375090423
 20
210.0018733075
 10
363.3779913671
 20
213.2893147698
 10
363.7989257367
 20
216.5647607148
 10
364.4987762073
 20
219.8162593953
 10
365.4749891005
 20
223.0319464453
 10
366.7240023211
 20
226.2000881715
 10
368.2412583555
 20
229.3091243683
 10
370.0212209009
 20
232.3477104998
 10
372.057395067
 20
235.3047590947
 10
374.3423510751
 20
238.1694802033
 10
376.8677513685
 20
240.9314207691
 10
379.6243810354
 20
243.5805027704
 10
382.6021814331
 20
246.1070599943
 10
385.7902868909
 20
248.5018733075
 10
389.1770643577
 20
250.7562042959
 10
392.7501558499
 20
252.8618271501
 10
396.496523544
 20
254.8110586808
 10
400.4024973506
 20
256.5967863535
 10
404.4538247949
 20
258.2124942415
 10
408.6357230224
 20
259.652286802
 10
412.93293274
 20
260.9109103881
 10
417.3297738954
 20
261.9837724188
 10
421.8102028921
 20
262.8669581369
 10
426.3578711306
 20
263.5572448936
 10
430.9561846626
 20
264.0521139071
 10
435.5883647408
 20
264.3497594544
 10
440.2375090423
 20
264.4490954589
 10
444.8866533438
 20
264.3497594544
 10
449.5188334219
 20
264.0521139071
 10
454.1171469539
 20
263.5572448936
 10
458.6648151924
 20
262.8669581369
 10
463.1452441891
 20
261.9837724188
 10
467.5420853446
 20
260.9109103881
 10
471.8392950621
 20
259.652286802
 10
476.0211932896
 20
258.2124942415
 10
480.072520734
 20
256.5967863535
 10
483.9784945406
 20
254.8110586808
 10
487.7248622347
 20
252.8618271501
 10
491.2979537268
 20
250.7562042959
 10
494.6847311936
 20
248.5018733075
 10
497.8728366515
 20
246.1070599943
 10
500.8506370492
 20
243.5805027704
 10
503.6072667161
 20
240.9314207691
 10
506.1326670095
 20
238.1694802033
 10
508.4176230176
 20
235.3047590947
 10
510.4537971837
 20
232.3477104998
 10
512.2337597291
 20
229.3091243683
 10
513.7510157634
 20
226.2000881715
 10
515.0000289841
 20
223.0319464453
 10
515.9762418772
 20
219.8162593953
 10
516.6760923478
 20
216.5647607147
 10
517.0970267175
 20
213.2893147698
 10
517.2375090423
 20
210.0018733075
  0
SPLINE
  5
E5
330
1F
100
AcDbEntity
  8
0
  6
Continuous
 62
     7
370
    25
100
AcDbSpline
210
0.0
220
0.0
230
1.0
 70
     8
 71
     3
 72
    10
 73
     6
 74
     0
 42
0.00000001
 43
0.00000001
 40
0.0
 40
0.0
 40
0.0
 40
0.0
 40
0.4292329747341669
 40
0.8585089280196946
 40
0.9999999999999999
 40
0.9999999999999999
 40
0.9999999999999999
 40
0.9999999999999999
 10
517.078253442627
 20
202.9308054956349
 30
0.0
 10
517.1130723526534
 20
202.1519781027006
 30
0.0
 10
517.1827136590791
 20
200.5942453338366
 30
0.0
 10
517.2406442268062
 20
198.8758383359938
 30
0.0
 10
517.2318197939985
 20
198.2083954250752
 30
0.0
 10
517.2296322491643
 20
198.0429387522627
 30
0.0
  0
SPLINE
  5
E6
330
1F
100
AcDbEntity
  8
0
  6
Continuous
 62
     7
370
    25
100
AcDbSpline
210
0.0
220
0.0
230
1.0
 70
     8
 71
     3
 72
    13
 73
     9
 74
     0
 42
0.00000001
 43
0.00000001
 40
0.0
 40
0.0
 40
0.0
 40
0.0
 40
0.001907179414177
 40
0.2167649812865842
 40
0.4316415814515362
 40
0.6457476033362811
 40
0.8594986736382322
 40
1.0
 40
1.0
 40
1.0
 40
1.0
 10
517.0781754845939
 20
209.9273431223394
 30
0.0
 10
517.0778802542387
 20
209.9284959747719
 30
0.0
 10
517.0443251508615
 20
210.0595261411522
 30
0.0
 10
516.9687403148813
 20
209.59561897947
 30
0.0
 10
516.9103779014206
 20
208.5035282495681
 30
0.0
 10
516.9238528513931
 20
206.6924268328462
 30
0.0
 10
516.9958897192942
 20
204.7386561144432
 30
0.0
 10
517.0548635986828
 20
203.4442031680227
 30
0.0
 10
517.078253442627
 20
202.9308054956348
 30
0.0
  0
LINE
  5
E7
330
1F
100
AcDbEntity
  8
0
  6
Continuous
 62
     7
370
    25
100
AcDbLine
 10
532.2375090423
 20
-19.9981266925
 30
0.0
 11
532.2375090423
 21
-12.9981266925
 31
0.0
  0
LINE
  5
E8
330
1F
100
AcDbEntity
  8
0
  6
Continuous
 62
     7
370
    25
100
AcDbLine
 10
532.2375090423
 20
-26.9981266925
 30
0.0
 11
532.2375090423
 21
-19.9981266925
 31
0.0
  0
LINE
  5
E9
330
1F
100
AcDbEntity
  8
0
  6
Continuous
 62
     7
370
    25
100
AcDbLine
 10
532.2375090423
 20
202.9308054956
 30
0.0
 11
532.2375090423
 21
209.9308054956
 31
0.0
  0
LINE
  5
EA
330
1F
100
AcDbEntity
  8
0
  6
Continuous
 62
     7
370
    25
100
AcDbLine
 10
532.2375090423
 20
195.9308054956
 30
0.0
 11
532.2375090423
 21
202.9308054956
 31
0.0
  0
LINE
  5
EB
330
1F
100
AcDbEntity
  8
0
  6
Continuous
 62
     1
370
    25
100
AcDbLine
 10
363.2375090423
 20
78.2819604729
 30
0.0
 11
517.2375090423
 21
78.2819604729
 31
0.0
  0
LWPOLYLINE
  5
EC
330
1F
100
AcDbEntity
  8
0
  6
Continuous
 62
     1
370
    25
100
AcDbPolyline
 90
       54
 70
   128
 43
0.0
 10
363.2375090423
 20
133.4362894054
 10
363.3779913671
 20
136.7237308677
 10
363.7989257367
 20
139.9991768127
 10
364.4987762073
 20
143.2506754932
 10
365.4749891005
 20
146.4663625432
 10
366.7240023211
 20
149.6345042694
 10
368.2412583555
 20
152.7435404662
 10
370.0212209009
 20
155.7821265977
 10
372.057395067
 20
158.7391751926
 10
374.3423510751
 20
161.6038963012
 10
376.8677513685
 20
164.365836867
 10
379.6243810354
 20
167.0149188684
 10
382.6021814331
 20
169.5414760922
 10
385.7902868909
 20
171.9362894054
 10
389.1770643577
 20
174.1906203938
 10
392.7501558499
 20
176.296243248
 10
396.496523544
 20
178.2454747787
 10
400.4024973506
 20
180.0312024514
 10
404.4538247949
 20
181.6469103394
 10
408.6357230224
 20
183.0867028999
 10
412.93293274
 20
184.345326486
 10
417.3297738954
 20
185.4181885167
 10
421.8102028921
 20
186.3013742349
 10
426.3578711306
 20
186.9916609915
 10
430.9561846626
 20
187.4865300051
 10
435.5883647408
 20
187.7841755523
 10
440.2375090423
 20
187.8835115568
 10
444.8866533438
 20
187.7841755523
 10
449.5188334219
 20
187.4865300051
 10
454.1171469539
 20
186.9916609915
 10
458.6648151924
 20
186.3013742349
 10
463.1452441891
 20
185.4181885167
 10
467.5420853446
 20
184.345326486
 10
471.8392950621
 20
183.0867028999
 10
476.0211932896
 20
181.6469103394
 10
480.072520734
 20
180.0312024514
 10
483.9784945406
 20
178.2454747787
 10
487.7248622347
 20
176.296243248
 10
491.2979537268
 20
174.1906203938
 10
494.6847311936
 20
171.9362894054
 10
497.8728366515
 20
169.5414760922
 10
500.8506370492
 20
167.0149188684
 10
503.6072667161
 20
164.365836867
 10
506.1326670095
 20
161.6038963012
 10
508.4176230176
 20
158.7391751926
 10
510.4537971837
 20
155.7821265977
 10
512.2337597291
 20
152.7435404662
 10
513.7510157634
 20
149.6345042694
 10
515.0000289841
 20
146.4663625432
 10
515.9762418772
 20
143.2506754932
 10
516.6760923478
 20
139.9991768127
 10
517.0970267175
 20
136.7237308677
 10
517.2375090423
 20
133.4362894054
 10
517.2375090423
 20
133.4362894054
  0
INSERT
  5
F8
330
1F
100
AcDbEntity
  8
FORMAT
 62
     7
100
AcDbBlockReference
  2
SW_CENTERMARKSYMBOL_2
 10
440.2375090423
 20
122.0018733075
 30
0.0
  0
LINE
  5
F9
330
1F
100
AcDbEntity
  8
0
  6
Continuous
 62
     7
370
    25
100
AcDbLine
 10
221.8342280486
 20
-157.7157574067
 30
0.0
 11
145.2686441465
 21
-157.7157574067
 31
0.0
  0
LINE
  5
FA
330
1F
100
AcDbEntity
  8
0
  6
Continuous
 62
     7
370
    25
100
AcDbLine
 10
219.6494787408
 20
-311.7157574067
 30
0.0
 11
221.8342280486
 21
-311.7157574067
 31
0.0
  0
LINE
  5
FB
330
1F
100
AcDbEntity
  8
0
  6
Continuous
 62
     7
370
    25
100
AcDbLine
 10
145.2686441465
 20
-311.7157574067
 30
0.0
 11
207.7631602368
 21
-311.7157574067
 31
0.0
  0
LINE
  5
FC
330
1F
100
AcDbEntity
  8
0
  6
Continuous
 62
     7
370
    25
100
AcDbLine
 10
207.7631602368
 20
-311.556501807
 30
0.0
 11
207.7631602368
 21
-326.7157574067
 31
0.0
  0
LINE
  5
FD
330
1F
100
AcDbEntity
  8
0
  6
Continuous
 62
     7
370
    25
100
AcDbLine
 10
221.7631602368
 20
-326.7157574067
 30
0.0
 11
221.7631602368
 21
-311.7157574067
 31
0.0
  0
LINE
  5
FE
330
1F
100
AcDbEntity
  8
0
  6
Continuous
 62
     7
370
    25
100
AcDbLine
 10
122.4229730791
 20
-311.7157574067
 30
0.0
 11
145.2686441465
 21
-311.7157574067
 31
0.0
  0
LINE
  5
FF
330
1F
100
AcDbEntity
  8
0
  6
Continuous
 62
     7
370
    25
100
AcDbLine
 10
145.2686441465
 20
-157.7157574067
 30
0.0
 11
122.4229730791
 21
-157.7157574067
 31
0.0
  0
LINE
  5
100
330
1F
100
AcDbEntity
  8
0
  6
Continuous
 62
     7
370
    25
100
AcDbLine
 10
115.4229730791
 20
-311.3969154574
 30
0.0
 11
115.4229730791
 21
-326.7157574067
 31
0.0
  0
LINE
  5
101
330
1F
100
AcDbEntity
  8
0
  6
Continuous
 62
     7
370
    25
100
AcDbLine
 10
129.4229730791
 20
-326.7157574067
 30
0.0
 11
129.4229730791
 21
-311.7157574067
 31
0.0
  0
LWPOLYLINE
  5
102
330
1F
100
AcDbEntity
  8
0
  6
Continuous
 62
     7
370
    25
100
AcDbPolyline
 90
      105
 70
   128
 43
0.0
 10
221.8342280486
 20
-311.7157574067
 10
225.1216695109
 20
-311.5752750819
 10
228.3971154559
 20
-311.1543407122
 10
231.6486141364
 20
-310.4544902416
 10
234.8643011864
 20
-309.4782773485
 10
238.0324429126
 20
-308.2292641278
 10
241.1414791094
 20
-306.7120080934
 10
244.1800652409
 20
-304.9320455481
 10
247.1371138358
 20
-302.895871382
 10
250.0018349445
 20
-300.6109153739
 10
252.7637755103
 20
-298.0855150805
 10
255.4128575116
 20
-295.3288854136
 10
257.9394147355
 20
-292.3510850158
 10
260.3342280486
 20
-289.162979558
 10
262.588559037
 20
-285.7762020912
 10
264.6941818912
 20
-282.2031105991
 10
266.6434134219
 20
-278.456742905
 10
268.4291410946
 20
-274.5507690983
 10
270.0448489826
 20
-270.499441654
 10
271.4846415432
 20
-266.3175434265
 10
272.7432651293
 20
-262.0203337089
 10
273.81612716
 20
-257.6234925535
 10
274.6993128781
 20
-253.1430635568
 10
275.3895996347
 20
-248.5953953183
 10
275.8844686483
 20
-243.9970817863
 10
276.1821141955
 20
-239.3649017082
 10
276.2814502
 20
-234.7157574067
 10
276.1821141955
 20
-230.0666131051
 10
275.8844686483
 20
-225.434433027
 10
275.3895996347
 20
-220.836119495
 10
274.6993128781
 20
-216.2884512565
 10
273.81612716
 20
-211.8080222598
 10
272.7432651293
 20
-207.4111811044
 10
271.4846415432
 20
-203.1139713868
 10
270.0448489826
 20
-198.9320731593
 10
268.4291410946
 20
-194.880745715
 10
266.6434134219
 20
-190.9747719084
 10
264.6941818912
 20
-187.2284042143
 10
262.588559037
 20
-183.6553127221
 10
260.3342280486
 20
-180.2685352553
 10
257.9394147355
 20
-177.0804297975
 10
255.4128575116
 20
-174.1026293998
 10
252.7637755103
 20
-171.3459997328
 10
250.0018349445
 20
-168.8205994394
 10
247.1371138358
 20
-166.5356434314
 10
244.1800652409
 20
-164.4994692653
 10
241.1414791094
 20
-162.7195067199
 10
238.0324429126
 20
-161.2022506855
 10
234.8643011864
 20
-159.9532374649
 10
231.6486141364
 20
-158.9770245717
 10
228.3971154559
 20
-158.2771741011
 10
225.1216695109
 20
-157.8562397315
 10
221.8342280486
 20
-157.7157574067
 10
218.5467865863
 20
-157.8562397315
 10
215.2713406414
 20
-158.2771741011
 10
212.0198419609
 20
-158.9770245717
 10
208.8041549109
 20
-159.9532374649
 10
205.6360131847
 20
-161.2022506855
 10
202.5269769879
 20
-162.7195067199
 10
199.4883908564
 20
-164.4994692653
 10
196.5313422615
 20
-166.5356434314
 10
193.6666211528
 20
-168.8205994394
 10
190.904680587
 20
-171.3459997328
 10
188.2555985857
 20
-174.1026293998
 10
185.7290413618
 20
-177.0804297975
 10
183.3342280486
 20
-180.2685352553
 10
181.0798970603
 20
-183.6553127221
 10
178.974274206
 20
-187.2284042143
 10
177.0250426753
 20
-190.9747719084
 10
175.2393150027
 20
-194.880745715
 10
173.6236071146
 20
-198.9320731593
 10
172.1838145541
 20
-203.1139713868
 10
170.925190968
 20
-207.4111811044
 10
169.8523289373
 20
-211.8080222598
 10
168.9691432192
 20
-216.2884512565
 10
168.2788564626
 20
-220.836119495
 10
167.783987449
 20
-225.434433027
 10
167.4863419018
 20
-230.0666131051
 10
167.3870058973
 20
-234.7157574067
 10
167.4863419018
 20
-239.3649017082
 10
167.783987449
 20
-243.9970817863
 10
168.2788564626
 20
-248.5953953183
 10
168.9691432192
 20
-253.1430635568
 10
169.8523289373
 20
-257.6234925535
 10
170.925190968
 20
-262.0203337089
 10
172.1838145541
 20
-266.3175434265
 10
173.6236071146
 20
-270.499441654
 10
175.2393150027
 20
-274.5507690983
 10
177.0250426753
 20
-278.456742905
 10
178.974274206
 20
-282.2031105991
 10
181.0798970603
 20
-285.7762020912
 10
183.3342280486
 20
-289.162979558
 10
185.7290413618
 20
-292.3510850158
 10
188.2555985857
 20
-295.3288854136
 10
190.904680587
 20
-298.0855150805
 10
193.6666211528
 20
-300.6109153739
 10
196.5313422615
 20
-302.895871382
 10
199.4883908564
 20
-304.9320455481
 10
202.5269769879
 20
-306.7120080934
 10
205.6360131847
 20
-308.2292641278
 10
208.8041549109
 20
-309.4782773485
 10
212.0198419609
 20
-310.4544902416
 10
215.2713406414
 20
-311.1543407122
 10
218.5467865863
 20
-311.5752750819
 10
221.8342280486
 20
-311.7157574067
  0
LWPOLYLINE
  5
103
330
1F
100
AcDbEntity
  8
0
  6
Continuous
 62
     7
370
    25
100
AcDbPolyline
 90
       94
 70
   128
 43
0.0
 10
221.8342280486
 20
-297.2157574067
 10
218.8506905611
 20
-297.0731708242
 10
215.8807662709
 20
-296.6460616665
 10
212.9380062613
 20
-295.9363787349
 10
210.0358376712
 20
-294.9473601498
 10
207.1875024304
 20
-293.683518576
 10
204.4059968392
 20
-292.1506206329
 10
201.7040122696
 20
-290.3556605822
 10
199.0938772576
 20
-288.3068284148
 10
196.5875012505
 20
-286.0134724821
 10
194.1963202672
 20
-283.4860568412
 10
191.9312447181
 20
-280.7361135099
 10
189.8026096233
 20
-277.7761898489
 10
187.8201274567
 20
-274.619791311
 10
185.9928438295
 20
-271.2813198189
 10
184.329096218
 20
-267.7760080521
 10
182.8364759209
 20
-264.1198499443
 10
181.5217934221
 20
-260.3295277064
 10
180.3910473165
 20
-256.4223357095
 10
179.4493969392
 20
-252.4161015743
 10
178.7011388248
 20
-248.3291048285
 10
178.1496871036
 20
-244.1799935007
 10
177.7975579232
 20
-239.9876990343
 10
177.6463579683
 20
-235.7713499075
 10
177.6967771297
 20
-231.5501843542
 10
177.9485853562
 20
-227.3434625847
 10
178.4006337047
 20
-223.1703789056
 10
179.0508595823
 20
-219.0499741405
 10
179.8962961573
 20
-215.0010487513
 10
180.9330858968
 20
-211.042077056
 10
182.1564981667
 20
-207.1911229343
 10
183.5609508176
 20
-203.4657574067
 10
185.1400356542
 20
-199.8829784615
 10
186.8865476745
 20
-196.4591334974
 10
188.7925179447
 20
-193.2098447337
 10
190.8492499597
 20
-190.1499379297
 10
193.0473593229
 20
-187.2933747384
 10
195.3768165656
 20
-184.6531890023
 10
197.8269929087
 20
-182.2414272836
 10
200.3867087593
 20
-180.0690938976
 10
203.0442847213
 20
-178.1461007035
 10
205.787594885
 20
-176.4812218781
 10
208.6041221554
 20
-175.0820538817
 10
211.4810153645
 20
-173.9549807968
 10
214.4051479085
 20
-173.1051451995
 10
217.3631776412
 20
-172.5364246947
 10
220.3416077515
 20
-172.2514142236
 10
223.3268483458
 20
-172.2514142236
 10
226.305278456
 20
-172.5364246947
 10
229.2633081888
 20
-173.1051451995
 10
232.1874407327
 20
-173.9549807968
 10
235.0643339419
 20
-175.0820538817
 10
237.8808612122
 20
-176.4812218781
 10
240.624171376
 20
-178.1461007035
 10
243.2817473379
 20
-180.0690938976
 10
245.8414631886
 20
-182.2414272836
 10
248.2916395316
 20
-184.6531890023
 10
250.6210967743
 20
-187.2933747384
 10
252.8192061376
 20
-190.1499379297
 10
254.8759381526
 20
-193.2098447337
 10
256.7819084228
 20
-196.4591334974
 10
258.5284204431
 20
-199.8829784615
 10
260.1075052796
 20
-203.4657574067
 10
261.5119579305
 20
-207.1911229343
 10
262.7353702005
 20
-211.042077056
 10
263.7721599399
 20
-215.0010487513
 10
264.617596515
 20
-219.0499741405
 10
265.2678223926
 20
-223.1703789056
 10
265.7198707411
 20
-227.3434625847
 10
265.9716789676
 20
-231.5501843542
 10
266.022098129
 20
-235.7713499075
 10
265.8708981741
 20
-239.9876990344
 10
265.5187689937
 20
-244.1799935007
 10
264.9673172724
 20
-248.3291048285
 10
264.219059158
 20
-252.4161015743
 10
263.2774087807
 20
-256.4223357095
 10
262.1466626751
 20
-260.3295277064
 10
260.8319801764
 20
-264.1198499443
 10
259.3393598792
 20
-267.7760080521
 10
257.6756122677
 20
-271.2813198189
 10
255.8483286406
 20
-274.619791311
 10
253.8658464739
 20
-277.7761898489
 10
251.7372113792
 20
-280.7361135099
 10
249.47213583
 20
-283.4860568412
 10
247.0809548467
 20
-286.0134724821
 10
244.5745788397
 20
-288.3068284148
 10
241.9644438276
 20
-290.3556605822
 10
239.2624592581
 20
-292.1506206329
 10
236.4809536669
 20
-293.683518576
 10
233.632618426
 20
-294.9473601498
 10
230.730449836
 20
-295.9363787349
 10
227.7876898263
 20
-296.6460616665
 10
224.8177655361
 20
-297.0731708242
 10
221.8342280486
 20
-297.2157574067
  0
SPLINE
  5
104
330
1F
100
AcDbEntity
  8
0
  6
Continuous
 62
     7
370
    25
100
AcDbSpline
210
0.0
220
0.0
230
1.0
 70
     8
 71
     3
 72
    15
 73
    11
 74
     0
 42
0.00000001
 43
0.00000001
 40
0.0
 40
0.0
 40
0.0
 40
0.0
 40
0.0494538918961708
 40
0.1919496736091819
 40
0.3346623711181557
 40
0.4778885095054125
 40
0.6211271790031337
 40
0.7638521741058026
 40
0.9063405552988298
 40
1.0
 40
1.0
 40
1.0
 40
1.0
 10
219.6494519497417
 20
-311.7076764886629
 30
0.0
 10
219.4751705271463
 20
-311.7098799146097
 30
0.0
 10
218.7987169478492
 20
-311.7184322625664
 30
0.0
 10
217.0706283570975
 20
-311.6596499414806
 30
0.0
 10
214.7452239126152
 20
-311.5561727737183
 30
0.0
 10
212.3795485595768
 20
-311.4479431248996
 30
0.0
 10
210.2878119043982
 20
-311.388371352716
 30
0.0
 10
208.7121822596364
 20
-311.4021699115605
 30
0.0
 10
207.881344080782
 20
-311.4741275806512
 30
0.0
 10
207.7967223628584
 20
-311.5331089803917
 30
0.0
 10
207.7631602367606
 20
-311.5565018070099
 30
0.0
  0
LINE
  5
105
330
1F
100
AcDbEntity
  8
0
  6
Continuous
 62
     7
370
    25
100
AcDbLine
 10
207.7631602368
 20
-326.7157574067
 30
0.0
 11
221.7631602368
 21
-326.7157574067
 31
0.0
  0
ARC
  5
106
330
1F
100
AcDbEntity
  8
0
  6
Continuous
 62
     7
370
    25
100
AcDbCircle
 10
122.4229730791
 20
-234.7157574067
 30
0.0
 40
77.00000000000014
100
AcDbArc
 50
90.0
 51
270.0
  0
ARC
  5
107
330
1F
100
AcDbEntity
  8
0
  6
Continuous
 62
     7
370
    25
100
AcDbCircle
 10
122.4229730791
 20
-234.7157574067
 30
0.0
 40
62.49999999999999
100
AcDbArc
 50
338.7077318576
 51
21.2922681424
  0
LINE
  5
108
330
1F
100
AcDbEntity
  8
0
  6
Continuous
 62
     7
370
    25
100
AcDbLine
 10
115.4229730791
 20
-326.7157574067
 30
0.0
 11
129.4229730791
 21
-326.7157574067
 31
0.0
  0
LWPOLYLINE
  5
109
330
1F
100
AcDbEntity
  8
0
  6
Continuous
 62
     1
370
    25
100
AcDbPolyline
 90
       53
 70
   128
 43
0.0
 10
145.2686441465
 20
-157.7157574067
 10
141.9812026842
 20
-157.8562397315
 10
138.7057567393
 20
-158.2771741011
 10
135.4542580588
 20
-158.9770245717
 10
132.2385710088
 20
-159.9532374649
 10
129.0704292826
 20
-161.2022506855
 10
125.9613930858
 20
-162.7195067199
 10
122.9228069543
 20
-164.4994692653
 10
119.9657583594
 20
-166.5356434314
 10
117.1010372507
 20
-168.8205994394
 10
114.3390966849
 20
-171.3459997328
 10
111.6900146836
 20
-174.1026293998
 10
109.1634574597
 20
-177.0804297975
 10
106.7686441465
 20
-180.2685352553
 10
104.5143131582
 20
-183.6553127221
 10
102.4086903039
 20
-187.2284042143
 10
100.4594587732
 20
-190.9747719084
 10
98.6737311006
 20
-194.880745715
 10
97.0580232125
 20
-198.9320731593
 10
95.618230652
 20
-203.1139713868
 10
94.3596070659
 20
-207.4111811044
 10
93.2867450352
 20
-211.8080222598
 10
92.4035593171
 20
-216.2884512565
 10
91.7132725605
 20
-220.836119495
 10
91.2184035469
 20
-225.434433027
 10
90.9207579997
 20
-230.0666131051
 10
90.8214219952
 20
-234.7157574067
 10
90.9207579997
 20
-239.3649017082
 10
91.2184035469
 20
-243.9970817863
 10
91.7132725605
 20
-248.5953953183
 10
92.4035593171
 20
-253.1430635568
 10
93.2867450352
 20
-257.6234925535
 10
94.3596070659
 20
-262.0203337089
 10
95.618230652
 20
-266.3175434265
 10
97.0580232125
 20
-270.499441654
 10
98.6737311006
 20
-274.5507690983
 10
100.4594587732
 20
-278.456742905
 10
102.4086903039
 20
-282.2031105991
 10
104.5143131582
 20
-285.7762020912
 10
106.7686441465
 20
-289.162979558
 10
109.1634574597
 20
-292.3510850158
 10
111.6900146836
 20
-295.3288854136
 10
114.3390966849
 20
-298.0855150805
 10
117.1010372507
 20
-300.6109153739
 10
119.9657583594
 20
-302.895871382
 10
122.9228069543
 20
-304.9320455481
 10
125.9613930858
 20
-306.7120080934
 10
129.0704292826
 20
-308.2292641278
 10
132.2385710088
 20
-309.4782773485
 10
135.4542580588
 20
-310.4544902416
 10
138.7057567393
 20
-311.1543407122
 10
141.9812026842
 20
-311.5752750819
 10
145.2686441465
 20
-311.7157574067
  0
ARC
  5
10A
330
1F
100
AcDbEntity
  8
0
  6
Continuous
 62
     1
370
    25
100
AcDbCircle
 10
104.5679032283
 20
-234.7157574067
 30
0.0
 40
84.93235040533273
100
AcDbArc
 50
338.4282948669
 51
21.5717051331
  0
INSERT
  5
116
330
1F
100
AcDbEntity
  8
FORMAT
 62
     7
100
AcDbBlockReference
  2
SW_CENTERMARKSYMBOL_3
 10
122.4229730791
 20
-234.7157574067
 30
0.0
  0
LINE
  5
117
330
1F
100
AcDbEntity
  8
0
  6
Continuous
 62
     7
370
    25
100
AcDbLine
 10
371.0166907039
 20
-236.4259392473
 30
0.0
 11
371.0166907039
 21
-324.8410495323
 31
0.0
  0
LINE
  5
118
330
1F
100
AcDbEntity
  8
0
  6
Continuous
 62
     7
370
    25
100
AcDbLine
 10
525.0166907039
 20
-324.8410495323
 30
0.0
 11
525.0166907039
 21
-236.4259392473
 31
0.0
  0
LINE
  5
119
330
1F
100
AcDbEntity
  8
0
  6
Continuous
 62
     7
370
    25
100
AcDbLine
 10
451.6271071767
 20
-49.7911771132
 30
0.0
 11
449.7217552284
 21
-53.0913434842
 31
0.0
  0
LINE
  5
11A
330
1F
100
AcDbEntity
  8
0
  6
Continuous
 62
     7
370
    25
100
AcDbLine
 10
443.5291114708
 20
-63.8173170741
 30
0.0
 11
397.487063594
 21
-143.5644830472
 31
0.0
  0
LINE
  5
11B
330
1F
100
AcDbEntity
  8
0
  6
Continuous
 62
     7
370
    25
100
AcDbLine
 10
530.854975679
 20
-220.5644832167
 30
0.0
 11
584.9950192617
 21
-126.7911772827
 31
0.0
  0
LINE
  5
11C
330
1F
100
AcDbEntity
  8
0
  6
Continuous
 62
     7
370
    25
100
AcDbLine
 10
397.181331007
 20
-279.2463280933
 30
0.0
 11
386.462582399
 21
-273.058526233
 31
0.0
  0
LINE
  5
11D
330
1F
100
AcDbEntity
  8
0
  6
Continuous
 62
     7
370
    25
100
AcDbLine
 10
379.4631512706
 20
-285.1832103063
 30
0.0
 11
390.1828291304
 21
-291.3715486123
 31
0.0
  0
SPLINE
  5
11E
330
1F
100
AcDbEntity
  8
0
  6
Continuous
 62
     7
370
    25
100
AcDbSpline
210
0.0
220
0.0
230
1.0
 70
     8
 71
     3
 72
    21
 73
    17
 74
     0
 42
0.00000001
 43
0.00000001
 40
0.0
 40
0.0
 40
0.0
 40
0.0
 40
0.0790849969308463
 40
0.1568166410841467
 40
0.2325519639258867
 40
0.3069110733120296
 40
0.3804453623013133
 40
0.4536220191855688
 40
0.5268165802098771
 40
0.6002882403531589
 40
0.6741727689589405
 40
0.7485921442261944
 40
0.8235833533090108
 40
0.8991110361460556
 40
0.9750829331417152
 40
1.0
 40
1.0
 40
1.0
 40
1.0
 10
525.0164209003766
 20
-236.4694405169583
 30
0.0
 10
525.0169199669642
 20
-236.4487934137133
 30
0.0
 10
525.0179095597945
 20
-236.4078525335887
 30
0.0
 10
525.0463732955201
 20
-236.0488474019556
 30
0.0
 10
525.1174854158459
 20
-235.4821047787714
 30
0.0
 10
525.2471419742637
 20
-234.7007516978188
 30
0.0
 10
525.4488038763205
 20
-233.7237376073625
 30
0.0
 10
525.7342012803947
 20
-232.5646444558582
 30
0.0
 10
526.1128407490105
 20
-231.2410981377234
 30
0.0
 10
526.5916281628497
 20
-229.7731639777173
 30
0.0
 10
527.1745111448106
 20
-228.1837320005805
 30
0.0
 10
527.8623110287973
 20
-226.4980972670909
 30
0.0
 10
528.6523512632019
 20
-224.7431424684976
 30
0.0
 10
529.5390768645497
 20
-222.9485132628096
 30
0.0
 10
530.2910911018229
 20
-221.5493277419021
 30
0.0
 10
530.7432930384055
 20
-220.7595409316329
 30
0.0
 10
530.8549756789724
 20
-220.5644832166606
 30
0.0
  0
SPLINE
  5
11F
330
1F
100
AcDbEntity
  8
0
  6
Continuous
 62
     7
370
    25
100
AcDbSpline
210
0.0
220
0.0
230
1.0
 70
     8
 71
     3
 72
    23
 73
    19
 74
     0
 42
0.00000001
 43
0.00000001
 40
0.0
 40
0.0
 40
0.0
 40
0.0
 40
0.0367219371434393
 40
0.0999476439615124
 40
0.1632504853615637
 40
0.2266702527831598
 40
0.2902491072000439
 40
0.3540265809906236
 40
0.4180378574083403
 40
0.4823116534138723
 40
0.5468676280423961
 40
0.6117133037200844
 40
0.6768406055472419
 40
0.7422223082911096
 40
0.8078089271392862
 40
0.8735233507751655
 40
0.9392344567561798
 40
0.9999999999999999
 40
0.9999999999999999
 40
0.9999999999999999
 40
0.9999999999999999
 10
397.4870635940238
 20
-143.564483047171
 30
0.0
 10
396.8811641760246
 20
-144.6266157168477
 30
0.0
 10
395.2320621945543
 20
-147.5174669672614
 30
0.0
 10
392.6733470216809
 20
-152.3129628956271
 30
0.0
 10
389.8586659251875
 20
-157.9678317861952
 30
0.0
 10
387.2177618202611
 20
-163.7064225178042
 30
0.0
 10
384.7519656960246
 20
-169.5223921259116
 30
0.0
 10
382.4668270987543
 20
-175.4117348518343
 30
0.0
 10
380.3674540952741
 20
-181.3696633402799
 30
0.0
 10
378.4598351217443
 20
-187.3911685319416
 30
0.0
 10
376.7504958608185
 20
-193.4705600394074
 30
0.0
 10
375.2466174580979
 20
-199.6012128748834
 30
0.0
 10
373.9557490650876
 20
-205.7752259187155
 30
0.0
 10
372.8863424017636
 20
-211.9830093957979
 30
0.0
 10
372.04494003181
 20
-218.2130950666868
 30
0.0
 10
371.4455261405917
 20
-224.4500982157722
 30
0.0
 10
371.0818938394023
 20
-230.5265577824996
 30
0.0
 10
371.0378510198723
 20
-234.5114181941689
 30
0.0
 10
371.0166907039474
 20
-236.4259392472641
 30
0.0
  0
LINE
  5
120
330
1F
100
AcDbEntity
  8
0
  6
Continuous
 62
     7
370
    25
100
AcDbLine
 10
462.3692534134
 20
-59.4606655504
 30
0.0
 11
451.7569549142
 21
-53.3343160299
 31
0.0
  0
LINE
  5
121
330
1F
100
AcDbEntity
  8
0
  6
Continuous
 62
     7
370
    25
100
AcDbLine
 10
444.7575237858
 20
-65.4590001032
 30
0.0
 11
455.3696791483
 21
-71.5852669927
 31
0.0
  0
LWPOLYLINE
  5
122
330
1F
100
AcDbEntity
  8
0
  6
Continuous
 62
     7
370
    25
100
AcDbPolyline
 90
      105
 70
   128
 43
0.0
 10
393.5694685526
 20
-293.4093372271
 10
396.9562460194
 20
-291.5688831215
 10
400.5293375115
 20
-289.8498355429
 10
404.2757052056
 20
-288.2584671094
 10
408.1816790123
 20
-286.8005845519
 10
412.2330064566
 20
-285.4815075258
 10
416.4149046841
 20
-284.3060492
 10
420.7121144017
 20
-283.2784986946
 10
425.1089555571
 20
-282.4026054299
 10
429.5893845538
 20
-281.6815654454
 10
434.1370527923
 20
-281.1180097378
 10
438.7353663243
 20
-280.7139946608
 10
443.3675464024
 20
-280.4709944216
 10
448.0166907039
 20
-280.3898957017
 10
452.6658350055
 20
-280.4709944216
 10
457.2980150836
 20
-280.7139946608
 10
461.8963286156
 20
-281.1180097378
 10
466.4439968541
 20
-281.6815654454
 10
470.9244258508
 20
-282.4026054299
 10
475.3212670062
 20
-283.2784986946
 10
479.6184767238
 20
-284.3060492
 10
483.8003749513
 20
-285.4815075258
 10
487.8517023956
 20
-286.8005845519
 10
491.7576762022
 20
-288.2584671094
 10
495.5040438963
 20
-289.8498355429
 10
499.0771353885
 20
-291.5688831215
 10
502.4639128553
 20
-293.4093372271
 10
505.6520183131
 20
-295.3644822423
 10
508.6298187108
 20
-297.4271840549
 10
511.3864483778
 20
-299.5899160896
 10
513.9118486712
 20
-301.8447867719
 10
516.1968046792
 20
-304.1835683232
 10
518.2329788453
 20
-306.5977267831
 10
520.0129413907
 20
-309.0784531493
 10
521.5301974251
 20
-311.6166955203
 10
522.7792106458
 20
-314.203192125
 10
523.7554235389
 20
-316.8285051177
 10
524.4552740095
 20
-319.4830550161
 10
524.8762083791
 20
-322.1571556553
 10
525.0166907039
 20
-324.8410495323
 10
524.8762083791
 20
-327.5249434093
 10
524.4552740095
 20
-330.1990440486
 10
523.7554235389
 20
-332.8535939469
 10
522.7792106458
 20
-335.4789069396
 10
521.5301974251
 20
-338.0654035443
 10
520.0129413907
 20
-340.6036459153
 10
518.2329788453
 20
-343.0843722815
 10
516.1968046792
 20
-345.4985307415
 10
513.9118486712
 20
-347.8373122927
 10
511.3864483778
 20
-350.092182975
 10
508.6298187108
 20
-352.2549150098
 10
505.6520183131
 20
-354.3176168223
 10
502.4639128553
 20
-356.2727618375
 10
499.0771353885
 20
-358.1132159431
 10
495.5040438963
 20
-359.8322635218
 10
491.7576762022
 20
-361.4236319553
 10
487.8517023956
 20
-362.8815145127
 10
483.8003749513
 20
-364.2005915389
 10
479.6184767238
 20
-365.3760498646
 10
475.3212670062
 20
-366.40360037
 10
470.9244258508
 20
-367.2794936348
 10
466.4439968541
 20
-368.0005336193
 10
461.8963286156
 20
-368.5640893269
 10
457.2980150836
 20
-368.9681044038
 10
452.6658350055
 20
-369.211104643
 10
448.0166907039
 20
-369.2922033629
 10
443.3675464024
 20
-369.211104643
 10
438.7353663243
 20
-368.9681044038
 10
434.1370527923
 20
-368.5640893269
 10
429.5893845538
 20
-368.0005336193
 10
425.1089555571
 20
-367.2794936348
 10
420.7121144017
 20
-366.40360037
 10
416.4149046841
 20
-365.3760498646
 10
412.2330064566
 20
-364.2005915389
 10
408.1816790123
 20
-362.8815145127
 10
404.2757052056
 20
-361.4236319553
 10
400.5293375115
 20
-359.8322635218
 10
396.9562460194
 20
-358.1132159431
 10
393.5694685526
 20
-356.2727618375
 10
390.3813630948
 20
-354.3176168223
 10
387.403562697
 20
-352.2549150098
 10
384.6469330301
 20
-350.092182975
 10
382.1215327367
 20
-347.8373122927
 10
379.8365767286
 20
-345.4985307415
 10
377.8004025626
 20
-343.0843722815
 10
376.0204400172
 20
-340.6036459153
 10
374.5031839828
 20
-338.0654035443
 10
373.2541707621
 20
-335.4789069396
 10
372.277957869
 20
-332.8535939469
 10
371.5781073984
 20
-330.1990440486
 10
371.1571730288
 20
-327.5249434093
 10
371.0166907039
 20
-324.8410495323
 10
371.1571730288
 20
-322.1571556553
 10
371.5781073984
 20
-319.4830550161
 10
372.277957869
 20
-316.8285051177
 10
373.2541707621
 20
-314.203192125
 10
374.5031839828
 20
-311.6166955203
 10
376.0204400172
 20
-309.0784531493
 10
377.8004025626
 20
-306.5977267831
 10
379.8365767287
 20
-304.1835683232
 10
382.1215327367
 20
-301.8447867719
 10
384.6469330301
 20
-299.5899160896
 10
387.4035626971
 20
-297.4271840549
 10
390.3813630948
 20
-295.3644822423
 10
393.5694685526
 20
-293.4093372271
  0
SPLINE
  5
123
330
1F
100
AcDbEntity
  8
0
  6
Continuous
 62
     7
370
    25
100
AcDbSpline
210
0.0
220
0.0
230
1.0
 70
     8
 71
     3
 72
    17
 73
    13
 74
     0
 42
0.00000001
 43
0.00000001
 40
0.0
 40
0.0
 40
0.0
 40
0.0
 40
0.0715496292181197
 40
0.1790693523288997
 40
0.286287392352322
 40
0.3931916622571136
 40
0.5002556171693573
 40
0.6077054077117743
 40
0.7151679934652178
 40
0.8222460493312519
 40
0.9291435518205384
 40
0.9999999999999999
 40
0.9999999999999999
 40
0.9999999999999999
 40
0.9999999999999999
 10
390.2244162222593
 20
-291.2938134626313
 30
0.0
 10
390.4697882054957
 20
-291.4363802883547
 30
0.0
 10
391.0838878535015
 20
-291.7931864580703
 30
0.0
 10
392.4645777130807
 20
-291.5546433353976
 30
0.0
 10
394.1338016716757
 20
-290.7016638139855
 30
0.0
 10
395.8021433342864
 20
-289.2411625147551
 30
0.0
 10
397.2536989880873
 20
-287.3609621289121
 30
0.0
 10
398.3064850892507
 20
-285.2464752190104
 30
0.0
 10
398.8177155101841
 20
-283.1162516907158
 30
0.0
 10
398.6958233372422
 20
-281.2398403265482
 30
0.0
 10
398.1099901421148
 20
-279.8780903092517
 30
0.0
 10
397.4126167793687
 20
-279.4802757676464
 30
0.0
 10
397.1346291489771
 20
-279.3216985582722
 30
0.0
  0
LWPOLYLINE
  5
124
330
1F
100
AcDbEntity
  8
0
  6
Continuous
 62
     7
370
    25
100
AcDbPolyline
 90
       94
 70
   128
 43
0.0
 10
403.8225168798
 20
-299.3282960379
 10
400.9398033317
 20
-301.1088599892
 10
398.2718908231
 20
-302.9977084783
 10
395.8309524269
 20
-304.9862231225
 10
393.6281255852
 20
-307.0653307858
 10
391.6734612915
 20
-309.2255449767
 10
389.9758782307
 20
-311.4570091333
 10
388.543122085
 20
-313.7495415964
 10
387.381730192
 20
-316.0926820663
 10
386.4970017166
 20
-318.4757393305
 10
385.8929734719
 20
-320.8878400451
 10
385.5724015002
 20
-323.3179783479
 10
385.5367484979
 20
-325.7550660752
 10
385.7861771415
 20
-328.1879833547
 10
386.3195493453
 20
-330.6056293428
 10
387.1344314542
 20
-332.9969728754
 10
388.2271053482
 20
-335.3511028004
 10
389.5925854067
 20
-337.6572777629
 10
391.2246412576
 20
-339.9049752155
 10
393.1158262043
 20
-342.0839394303
 10
395.2575112036
 20
-344.1842282934
 10
397.6399242381
 20
-346.1962586683
 10
400.2521949035
 20
-348.110850122
 10
403.0824040081
 20
-349.9192668127
 10
406.1176379567
 20
-351.6132573499
 10
409.344047673
 20
-353.1850924433
 10
412.7469117895
 20
-354.62760017
 10
416.3107038177
 20
-355.9341986979
 10
420.019162992
 20
-357.0989263177
 10
423.8553684637
 20
-358.1164686444
 10
427.8018165071
 20
-358.9821828657
 10
431.840500385
 20
-359.6921189262
 10
435.9529925092
 20
-360.2430375506
 10
440.1205285213
 20
-360.6324250234
 10
444.3240929104
 20
-360.858504659
 10
448.5445057763
 20
-360.9202449078
 10
452.762510343
 20
-360.8173640633
 10
456.9588608233
 20
-360.550331547
 10
461.1144102322
 20
-360.1203657673
 10
465.2101977511
 20
-359.5294285592
 10
469.2275352408
 20
-358.7802162337
 10
473.1480925118
 20
-357.8761472749
 10
476.9539809605
 20
-356.821346742
 10
480.6278351908
 20
-355.6206274479
 10
484.1528922486
 20
-354.2794679995
 10
487.5130681068
 20
-352.8039877995
 10
490.6930310539
 20
-351.2009191259
 10
493.6782716482
 20
-349.4775764131
 10
496.4551689217
 20
-347.6418228789
 10
499.0110525288
 20
-345.7020346455
 10
501.3342605591
 20
-343.6670625217
 10
503.414192747
 20
-341.5461916185
 10
505.241358839
 20
-339.3490989835
 10
506.8074218955
 20
-337.0858094464
 10
508.1052363297
 20
-334.7666498783
 10
509.1288805122
 20
-332.4022020724
 10
509.8736837893
 20
-330.0032544616
 10
510.3362477944
 20
-327.5807528937
 10
510.5144619542
 20
-325.1457506878
 10
510.4075131183
 20
-322.7093582004
 10
510.0158892696
 20
-320.2826921317
 10
509.3413772981
 20
-317.8768248022
 10
508.387054847
 20
-315.5027336329
 10
507.1572762709
 20
-313.1712510571
 10
505.6576527674
 20
-310.8930150953
 10
503.8950267745
 20
-308.6784208154
 10
501.8774407504
 20
-306.5375729033
 10
499.6141004774
 20
-304.480239557
 10
497.1153330579
 20
-302.5158079167
 10
494.3925397946
 20
-300.6532412333
 10
491.4581441687
 20
-298.9010379715
 10
488.3255351544
 20
-297.2671930328
 10
485.0090061281
 20
-295.759161277
 10
481.5236896511
 20
-294.383823507
 10
477.8854884231
 20
-293.1474550738
 10
474.1110027218
 20
-292.0556972428
 10
470.2174546597
 20
-291.1135314546
 10
466.2226096037
 20
-290.3252565957
 10
462.1446951154
 20
-289.6944693835
 10
458.0023177835
 20
-289.2240479552
 10
453.8143783254
 20
-288.916138736
 10
449.5999853485
 20
-288.772146645
 10
445.3783681613
 20
-288.7927286851
 10
441.1687890347
 20
-288.9777909452
 10
436.9904553128
 20
-289.3264890286
 10
432.862431774
 20
-289.837231906
 10
428.803553643
 20
-290.5076891747
 10
424.8323406496
 20
-291.334801692
 10
420.9669125279
 20
-292.3147955333
 10
417.2249063399
 20
-293.4431992113
 10
413.6233960016
 20
-294.7148640789
 10
410.1788143785
 20
-296.123987821
 10
406.9068783067
 20
-297.6641409291
 10
403.8225168798
 20
-299.3282960379
  0
LWPOLYLINE
  5
125
330
1F
100
AcDbEntity
  8
0
  6
Continuous
 62
     7
370
    25
100
AcDbPolyline
 90
      105
 70
   128
 43
0.0
 10
463.8638410678
 20
-56.8594648928
 10
466.2877492231
 20
-58.2591935297
 10
468.9014848094
 20
-59.7685056182
 10
471.695510589
 20
-61.3818938421
 10
474.6596314648
 20
-63.0934711227
 10
477.7830316813
 20
-64.8969921002
 10
481.0543142897
 20
-66.7858759221
 10
484.4615427346
 20
-68.7532302562
 10
487.9922844089
 20
-70.7918764398
 10
491.633656019
 20
-72.8943756742
 10
495.372370595
 20
-75.0530561676
 10
499.1947859728
 20
-77.260041129
 10
503.0869545731
 20
-79.5072775096
 10
507.0346742949
 20
-81.7865653877
 10
511.0235403369
 20
-84.0895878888
 10
515.0389977597
 20
-86.4079415336
 10
519.0663945945
 20
-88.7331669012
 10
523.0910353069
 20
-91.0567794962
 10
527.0982344197
 20
-93.3703007084
 10
531.0733700976
 20
-95.6652887497
 10
535.0019375018
 20
-97.9333694577
 10
538.8696017158
 20
-100.1662668518
 10
542.6622500523
 20
-102.3558333315
 10
546.3660435489
 20
-104.4940794063
 10
549.9674674647
 20
-106.573202848
 10
553.4533805945
 20
-108.5856171608
 10
556.8110632192
 20
-110.523979263
 10
560.0282635191
 20
-112.3812162816
 10
563.0932422792
 20
-114.15055136
 10
565.9948157244
 20
-115.8255283865
 10
568.7223963278
 20
-117.4000355515
 10
571.2660314437
 20
-118.8683276491
 10
573.6164396233
 20
-120.2250470408
 10
575.7650444821
 20
-121.4652432044
 10
577.704005994
 20
-122.5843907989
 10
579.4262490986
 20
-123.5784061759
 10
580.9254895177
 20
-124.4436622811
 10
582.1962566856
 20
-125.1770018889
 10
583.2339137106
 20
-125.7757491225
 10
584.0346742949
 20
-126.2377192182
 10
584.5956165498
 20
-126.5612264973
 10
584.914693658
 20
-126.7450905168
 10
584.9907413416
 20
-126.7886403767
 10
584.823482111
 20
-126.6917171685
 10
584.4135262769
 20
-126.4546745543
 10
583.7623697236
 20
-126.0783774769
 10
582.8723884509
 20
-125.5641990036
 10
581.7468299039
 20
-124.9140153159
 10
580.3898011237
 20
-124.1301988635
 10
578.8062537611
 20
-123.2156097077
 10
577.0019660087
 20
-122.1735850851
 10
574.9835215168
 20
-121.0079272305
 10
572.7582853705
 20
-119.7228895031
 10
570.3343772153
 20
-118.3231608662
 10
567.720641629
 20
-116.8138487777
 10
564.9266158494
 20
-115.2004605538
 10
561.9624949736
 20
-113.4888832732
 10
558.8390947571
 20
-111.6853622957
 10
555.5678121487
 20
-109.7964784738
 10
552.1605837038
 20
-107.8291241397
 10
548.6298420295
 20
-105.790477956
 10
544.9884704193
 20
-103.6879787217
 10
541.2497558433
 20
-101.5292982283
 10
537.4273404656
 20
-99.3223132669
 10
533.5351718653
 20
-97.0750768862
 10
529.5874521435
 20
-94.7957890082
 10
525.5985861014
 20
-92.4927665071
 10
521.5831286787
 20
-90.1744128623
 10
517.5557318439
 20
-87.8491874947
 10
513.5310911314
 20
-85.5255748997
 10
509.5238920187
 20
-83.2120536875
 10
505.5487563407
 20
-80.9170656461
 10
501.6201889366
 20
-78.6489849382
 10
497.7525247226
 20
-76.4160875441
 10
493.959876386
 20
-74.2265210644
 10
490.2560828895
 20
-72.0882749896
 10
486.6546589736
 20
-70.0091515478
 10
483.1687458439
 20
-67.9967372351
 10
479.8110632192
 20
-66.0583751328
 10
476.5938629193
 20
-64.2011381143
 10
473.5288841592
 20
-62.4318030358
 10
470.627310714
 20
-60.7568260094
 10
467.8997301105
 20
-59.1823188444
 10
465.3560949946
 20
-57.7140267467
 10
463.005686815
 20
-56.3573073551
 10
460.8570819562
 20
-55.1171111914
 10
458.9181204444
 20
-53.997963597
 10
457.1958773397
 20
-53.00394822
 10
455.6966369206
 20
-52.1386921148
 10
454.4258697528
 20
-51.405352507
 10
453.3882127277
 20
-50.8066052734
 10
452.5874521435
 20
-50.3446351776
 10
452.0265098885
 20
-50.0211278985
 10
451.7074327804
 20
-49.8372638791
 10
451.6313850967
 20
-49.7937140191
 10
451.7986443274
 20
-49.8906372274
 10
452.2086001615
 20
-50.1276798416
 10
452.8597567147
 20
-50.503976919
 10
453.7497379874
 20
-51.0181553922
 10
454.8752965344
 20
-51.66833908
 10
456.2323253147
 20
-52.4521555324
 10
457.8158726773
 20
-53.3667446882
 10
459.6201604297
 20
-54.4087693108
 10
461.6386049216
 20
-55.5744271654
 10
463.8638410678
 20
-56.8594648928
  0
SPLINE
  5
126
330
1F
100
AcDbEntity
  8
0
  6
Continuous
 62
     7
370
    25
100
AcDbSpline
210
0.0
220
0.0
230
1.0
 70
     8
 71
     3
 72
    17
 73
    13
 74
     0
 42
0.00000001
 43
0.00000001
 40
0.0
 40
0.0
 40
0.0
 40
0.0
 40
0.0718939747933724
 40
0.1787948879194564
 40
0.2859944240472681
 40
0.3935101120606024
 40
0.5008654273308678
 40
0.6078313070874161
 40
0.7147876068892354
 40
0.8221275539974079
 40
0.929647296284744
 40
1.0
 40
1.0
 40
1.0
 40
1.0
 10
455.4107761146399
 20
-71.50828372911353
 30
0.0
 10
455.675190331707
 20
-71.66099219473351
 30
0.0
 10
456.3327685284987
 20
-72.04076662052314
 30
0.0
 10
457.8173326472418
 20
-71.86325753648768
 30
0.0
 10
459.5711689949845
 20
-71.06329070416913
 30
0.0
 10
461.2692492165082
 20
-69.6148083082935
 30
0.0
 10
462.6735423694029
 20
-67.69991094197889
 30
0.0
 10
463.6202883996453
 20
-65.52835663140708
 30
0.0
 10
464.0188258189854
 20
-63.34049951427254
 30
0.0
 10
463.8297151146437
 20
-61.42389562545217
 30
0.0
 10
463.2386377083032
 20
-60.05644645857197
 30
0.0
 10
462.5819371733793
 20
-59.68405156550941
 30
0.0
 10
462.3221967852448
 20
-59.53676069407041
 30
0.0
  0
LWPOLYLINE
  5
127
330
1F
100
AcDbEntity
  8
0
  6
Continuous
 62
     7
370
    25
100
AcDbPolyline
 90
       32
 70
   128
 43
0.0
 10
378.0131193665
 20
-281.978296661
 10
378.1144409879
 20
-280.7692257348
 10
378.4142577332
 20
-279.4926708603
 10
378.9002950696
 20
-278.200894344
 10
379.5526545713
 20
-276.9467816684
 10
380.3446285638
 20
-275.7816763536
 10
381.2437935388
 20
-274.7532779483
 10
382.2133375765
 20
-273.9036892038
 10
383.21356743
 20
-273.2676923833
 10
384.2035335718
 20
-272.8713252713
 10
385.1427066715
 20
-272.730815184
 10
385.9926368722
 20
-272.8519146207
 10
386.7185279316
 20
-273.2296657565
 10
387.2906617845
 20
-273.8486034153
 10
387.6856152036
 20
-274.6833882167
 10
387.8872187495
 20
-275.6998439728
 10
387.8872187495
 20
-276.8563568657
 10
387.6856152036
 20
-278.1055791214
 10
387.2906617845
 20
-279.3963674342
 10
386.7185279316
 20
-280.6758767788
 10
385.9926368722
 20
-281.8917238924
 10
385.1427066715
 20
-282.9941318512
 10
384.2035335718
 20
-283.9379679438
 10
383.21356743
 20
-284.6845914098
 10
382.2133375765
 20
-285.2034353968
 10
381.2437935388
 20
-285.4732583709
 10
380.3446285638
 20
-285.4830137479
 10
379.5526545713
 20
-285.2323021414
 10
378.9002950696
 20
-284.7313877142
 10
378.4142577332
 20
-284.0007779618
 10
378.1144409879
 20
-283.0703841331
 10
378.0131193665
 20
-281.978296661
  0
LWPOLYLINE
  5
128
330
1F
100
AcDbEntity
  8
0
  6
Continuous
 62
     7
370
    25
100
AcDbPolyline
 90
       27
 70
   128
 43
0.0
 10
379.4273329289
 20
-281.1618885492
 10
379.5300691186
 20
-280.1255251752
 10
379.8323070339
 20
-279.0307747936
 10
380.3164817057
 20
-277.9412603174
 10
380.954454662
 20
-276.9203003677
 10
381.7091492334
 20
-276.0272294257
 10
382.5367053148
 20
-275.3139495283
 10
383.3890283547
 20
-274.8219139107
 10
384.2165844361
 20
-274.5797178943
 10
384.9712790076
 20
-274.6014370313
 10
385.6092519639
 20
-274.8858090844
 10
386.0934266357
 20
-275.4163073836
 10
386.395664551
 20
-276.1621012959
 10
386.4984007407
 20
-277.0798479901
 10
386.395664551
 20
-278.1162113641
 10
386.0934266357
 20
-279.2109617456
 10
385.6092519639
 20
-280.3004762218
 10
384.9712790076
 20
-281.3214361716
 10
384.2165844361
 20
-282.2145071136
 10
383.3890283547
 20
-282.9277870109
 10
382.5367053148
 20
-283.4198226286
 10
381.7091492334
 20
-283.6620186449
 10
380.954454662
 20
-283.6402995079
 10
380.3164817057
 20
-283.3559274548
 10
379.8323070339
 20
-282.8254291556
 10
379.5300691186
 20
-282.0796352433
 10
379.4273329289
 20
-281.1618885492
  0
LWPOLYLINE
  5
129
330
1F
100
AcDbEntity
  8
0
  6
Continuous
 62
     7
370
    25
100
AcDbPolyline
 90
       94
 70
   128
 43
0.0
 10
474.116889395
 20
-62.7784237035
 10
472.1080337451
 20
-61.6183401058
 10
470.3099919215
 20
-60.5799585461
 10
468.7309679767
 20
-59.6680169212
 10
467.3781666348
 20
-58.8866762117
 10
466.2577604181
 20
-58.239501496
 10
465.3748614831
 20
-57.7294456838
 10
464.7334982951
 20
-57.3588360429
 10
464.3365972474
 20
-57.12936358
 10
464.1859693082
 20
-57.0420753254
 10
464.2823017585
 20
-57.0973695554
 10
464.6251550552
 20
-57.294993975
 10
465.2129648375
 20
-57.6340468693
 10
466.0430490642
 20
-58.1129812178
 10
467.1116202512
 20
-58.7296117529
 10
468.4138027534
 20
-59.4811249309
 10
469.9436550106
 20
-60.3640917695
 10
471.6941966579
 20
-61.3744834936
 10
473.6574403753
 20
-62.5076899174
 10
475.824428332
 20
-63.7585404799
 10
478.1852730589
 20
-65.121327837
 10
480.7292025631
 20
-66.5898339025
 10
483.4446094776
 20
-68.15735822
 10
486.3191040237
 20
-69.8167485357
 10
489.3395705418
 20
-71.560433432
 10
492.4922273361
 20
-73.3804568747
 10
495.7626895567
 20
-75.2685145144
 10
499.1360348347
 20
-77.215991577
 10
502.5968713692
 20
-79.2140021714
 10
506.1294081569
 20
-81.2534298335
 10
509.7175270427
 20
-83.3249691226
 10
513.344856263
 20
-85.4191680802
 10
516.9948451466
 20
-87.5264713566
 10
520.6508396314
 20
-89.6372638103
 10
524.2961582531
 20
-91.7419143797
 10
527.9141682588
 20
-93.8308200267
 10
531.4883614989
 20
-95.894449554
 10
535.0024297492
 20
-97.9233870935
 10
538.4403391224
 20
-99.9083750685
 10
541.7864032265
 20
-101.8403564341
 10
545.0253547385
 20
-103.7105160025
 10
548.1424150655
 20
-105.5103206645
 10
551.1233617761
 20
-107.2315583242
 10
553.9545934942
 20
-108.8663753691
 10
556.6231919589
 20
-110.4073125038
 10
559.1169809674
 20
-111.8473387857
 10
561.4245819325
 20
-113.1798837051
 10
563.5354658002
 20
-114.3988671652
 10
565.4400010916
 20
-115.498727224
 10
567.129497849
 20
-116.4744454724
 10
568.5962472862
 20
-117.3215699318
 10
569.8335569619
 20
-118.0362353675
 10
570.8357813159
 20
-118.6151809251
 10
571.5983474282
 20
-119.0557650089
 10
572.1177758847
 20
-119.3559773346
 10
572.3916966525
 20
-119.5144481024
 10
572.4188598938
 20
-119.5304542464
 10
572.199141669
 20
-119.4039227342
 10
571.7335445021
 20
-119.1354309002
 10
571.0241928061
 20
-118.726203811
 10
570.07432319
 20
-118.178108676
 10
568.8882696911
 20
-117.4936463275
 10
567.4714439995
 20
-116.6759398102
 10
565.8303107658
 20
-115.7287201314
 10
563.9723581046
 20
-114.6563092374
 10
561.9060634277
 20
-113.4636002929
 10
559.6408547639
 20
-112.1560353554
 10
557.1870677406
 20
-110.7395805438
 10
554.5558984252
 20
-109.2206988165
 10
551.75935224
 20
-107.6063204825
 10
548.8101891836
 20
-105.9038115797
 10
545.7218656108
 20
-104.1209402659
 10
542.5084728336
 20
-102.265841374
 10
539.1846728262
 20
-100.3469792946
 10
535.7656313258
 20
-98.3731093554
 10
532.2669486345
 20
-96.3532378722
 10
528.704588439
 20
-94.2965810552
 10
525.0948049717
 20
-92.2125229578
 10
521.4540688468
 20
-90.1105726591
 10
517.798991908
 20
-88.0003208762
 10
514.1462514332
 20
-85.8913962041
 10
510.5125140394
 20
-83.7934211821
 10
506.9143596367
 20
-81.7159683893
 10
503.3682057786
 20
-79.6685167661
 10
499.8902327517
 20
-77.6604083649
 10
496.4963097491
 20
-75.7008057235
 10
493.2019224633
 20
-73.7986500594
 10
490.0221024277
 20
-71.9626204727
 10
486.9713584318
 20
-70.2010943452
 10
484.0636103207
 20
-68.5221091166
 10
481.3121254823
 20
-66.9333256114
 10
478.7294583106
 20
-65.4419930844
 10
476.3273929237
 20
-64.0549161437
 10
474.116889395
 20
-62.7784237035
  0
LWPOLYLINE
  5
12A
330
1F
100
AcDbEntity
  8
0
  6
Continuous
 62
     7
370
    25
100
AcDbPolyline
 90
       32
 70
   128
 43
0.0
 10
443.3074918817
 20
-62.2540864579
 10
443.4088135032
 20
-61.0450155317
 10
443.7086302485
 20
-59.7684606572
 10
444.1946675848
 20
-58.4766841409
 10
444.8470270866
 20
-57.2225714653
 10
445.6390010791
 20
-56.0574661505
 10
446.538166054
 20
-55.0290677452
 10
447.5077100917
 20
-54.1794790007
 10
448.5079399452
 20
-53.5434821802
 10
449.497906087
 20
-53.1471150682
 10
450.4370791867
 20
-53.0066049809
 10
451.2870093875
 20
-53.1277044176
 10
452.0129004469
 20
-53.5054555534
 10
452.5850342997
 20
-54.1243932122
 10
452.9799877188
 20
-54.9591780136
 10
453.1815912648
 20
-55.9756337697
 10
453.1815912648
 20
-57.1321466626
 10
452.9799877188
 20
-58.3813689183
 10
452.5850342997
 20
-59.6721572311
 10
452.0129004469
 20
-60.9516665757
 10
451.2870093875
 20
-62.1675136893
 10
450.4370791867
 20
-63.2699216481
 10
449.497906087
 20
-64.2137577407
 10
448.5079399452
 20
-64.9603812067
 10
447.5077100917
 20
-65.4792251937
 10
446.538166054
 20
-65.7490481678
 10
445.6390010791
 20
-65.7588035448
 10
444.8470270866
 20
-65.5080919383
 10
444.1946675848
 20
-65.0071775111
 10
443.7086302485
 20
-64.2765677587
 10
443.4088135032
 20
-63.34617393
 10
443.3074918817
 20
-62.2540864579
  0
LWPOLYLINE
  5
12B
330
1F
100
AcDbEntity
  8
0
  6
Continuous
 62
     7
370
    25
100
AcDbPolyline
 90
       27
 70
   128
 43
0.0
 10
444.7217054441
 20
-61.4376783461
 10
444.8244416338
 20
-60.4013149721
 10
445.1266795491
 20
-59.3065645905
 10
445.6108542209
 20
-58.2170501143
 10
446.2488271772
 20
-57.1960901646
 10
447.0035217487
 20
-56.3030192226
 10
447.8310778301
 20
-55.5897393252
 10
448.68340087
 20
-55.0977037076
 10
449.5109569514
 20
-54.8555076912
 10
450.2656515228
 20
-54.8772268282
 10
450.9036244791
 20
-55.1615988813
 10
451.3877991509
 20
-55.6920971805
 10
451.6900370662
 20
-56.4378910928
 10
451.7927732559
 20
-57.355637787
 10
451.6900370662
 20
-58.392001161
 10
451.3877991509
 20
-59.4867515425
 10
450.9036244791
 20
-60.5762660187
 10
450.2656515228
 20
-61.5972259685
 10
449.5109569514
 20
-62.4902969105
 10
448.68340087
 20
-63.2035768078
 10
447.8310778301
 20
-63.6956124255
 10
447.0035217487
 20
-63.9378084418
 10
446.2488271772
 20
-63.9160893048
 10
445.6108542209
 20
-63.6317172517
 10
445.1266795491
 20
-63.1012189525
 10
444.8244416338
 20
-62.3554250402
 10
444.7217054441
 20
-61.4376783461
  0
LWPOLYLINE
  5
12C
330
1F
100
AcDbEntity
  8
0
  6
Continuous
 62
     1
370
    25
100
AcDbPolyline
 90
       40
 70
   128
 43
0.0
 10
393.5694685526
 20
-204.9942269421
 10
396.9562460194
 20
-203.1537728365
 10
400.5293375115
 20
-201.4347252578
 10
404.2757052056
 20
-199.8433568243
 10
408.1816790123
 20
-198.3854742669
 10
412.2330064566
 20
-197.0663972407
 10
416.4149046841
 20
-195.890938915
 10
420.7121144017
 20
-194.8633884096
 10
425.1089555571
 20
-193.9874951448
 10
429.5893845538
 20
-193.2664551603
 10
434.1370527923
 20
-192.7028994527
 10
438.7353663243
 20
-192.2988843757
 10
443.3675464024
 20
-192.0558841366
 10
448.0166907039
 20
-191.9747854167
 10
452.6658350055
 20
-192.0558841366
 10
457.2980150836
 20
-192.2988843757
 10
461.8963286156
 20
-192.7028994527
 10
466.4439968541
 20
-193.2664551603
 10
470.9244258508
 20
-193.9874951448
 10
475.3212670062
 20
-194.8633884096
 10
479.6184767238
 20
-195.890938915
 10
483.8003749513
 20
-197.0663972407
 10
487.8517023956
 20
-198.3854742669
 10
491.7576762022
 20
-199.8433568243
 10
495.5040438963
 20
-201.4347252578
 10
499.0771353885
 20
-203.1537728365
 10
502.4639128553
 20
-204.9942269421
 10
505.6520183131
 20
-206.9493719573
 10
508.6298187108
 20
-209.0120737698
 10
511.3864483778
 20
-211.1748058046
 10
513.9118486712
 20
-213.4296764869
 10
516.1968046792
 20
-215.7684580381
 10
518.2329788453
 20
-218.182616498
 10
520.0129413907
 20
-220.6633428643
 10
521.5301974251
 20
-223.2015852353
 10
522.7792106458
 20
-225.7880818399
 10
523.7554235389
 20
-228.4133948327
 10
524.4552740095
 20
-231.067944731
 10
524.8762083791
 20
-233.7420453703
 10
525.0166907039
 20
-236.4259392473
  0
LWPOLYLINE
  5
12D
330
1F
100
AcDbEntity
  8
0
  6
Continuous
 62
     1
370
    25
100
AcDbPolyline
 90
       14
 70
   128
 43
0.0
 10
371.0166907039
 20
-236.4259392473
 10
371.1571730288
 20
-233.7420453703
 10
371.5781073984
 20
-231.067944731
 10
372.277957869
 20
-228.4133948327
 10
373.2541707621
 20
-225.7880818399
 10
374.5031839828
 20
-223.2015852353
 10
376.0204400172
 20
-220.6633428643
 10
377.8004025626
 20
-218.182616498
 10
379.8365767287
 20
-215.7684580381
 10
382.1215327367
 20
-213.4296764869
 10
384.6469330301
 20
-211.1748058046
 10
387.4035626971
 20
-209.0120737698
 10
390.3813630948
 20
-206.9493719573
 10
393.5694685526
 20
-204.9942269421
  0
LWPOLYLINE
  5
12E
330
1F
100
AcDbEntity
  8
0
  6
Continuous
 62
     1
370
    25
100
AcDbPolyline
 90
       43
 70
   128
 43
0.0
 10
409.7237974851
 20
-150.6327708267
 10
412.1477056404
 20
-152.0324994637
 10
414.7614412267
 20
-153.5418115522
 10
417.5554670063
 20
-155.1551997761
 10
420.5195878821
 20
-156.8667770567
 10
423.6429880986
 20
-158.6702980342
 10
426.914270707
 20
-160.5591818561
 10
430.3214991519
 20
-162.5265361902
 10
433.8522408262
 20
-164.5651823738
 10
437.4936124364
 20
-166.6676816082
 10
441.2323270123
 20
-168.8263621016
 10
445.0547423901
 20
-171.033347063
 10
448.9469109904
 20
-173.2805834436
 10
452.8946307122
 20
-175.5598713216
 10
456.8834967542
 20
-177.8628938227
 10
460.898954177
 20
-180.1812474676
 10
464.9263510118
 20
-182.5064728351
 10
468.9509917243
 20
-184.8300854302
 10
472.958190837
 20
-187.1436066424
 10
476.9333265149
 20
-189.4385946837
 10
480.8618939191
 20
-191.7066753917
 10
484.7295581331
 20
-193.9395727857
 10
488.5222064696
 20
-196.1291392655
 10
492.2259999662
 20
-198.2673853402
 10
495.827423882
 20
-200.346508782
 10
499.3133370118
 20
-202.3589230948
 10
502.6710196365
 20
-204.297285197
 10
505.8882199364
 20
-206.1545222156
 10
508.9531986965
 20
-207.923857294
 10
511.8547721417
 20
-209.5988343205
 10
514.5823527452
 20
-211.1733414855
 10
517.125987861
 20
-212.6416335831
 10
519.4763960407
 20
-213.9983529747
 10
521.6250008994
 20
-215.2385491384
 10
523.5639624113
 20
-216.3576967328
 10
525.2862055159
 20
-217.3517121098
 10
526.785445935
 20
-218.2169682151
 10
528.0562131029
 20
-218.9503078228
 10
529.0938701279
 20
-219.5490550565
 10
529.8946307122
 20
-220.0110251522
 10
530.4555729671
 20
-220.3345324313
 10
530.7746500753
 20
-220.5183964508
 10
530.854975679
 20
-220.5644832167
  0
LWPOLYLINE
  5
12F
330
1F
100
AcDbEntity
  8
0
  6
Continuous
 62
     1
370
    25
100
AcDbPolyline
 90
       12
 70
   128
 43
0.0
 10
397.487063594
 20
-143.5644830472
 10
397.491341514
 20
-143.5670199531
 10
397.6586007447
 20
-143.6639431614
 10
398.0685565788
 20
-143.9009857756
 10
398.719713132
 20
-144.2772828529
 10
399.6096944047
 20
-144.7914613262
 10
400.7352529517
 20
-145.4416450139
 10
402.092281732
 20
-146.2254614663
 10
403.6758290946
 20
-147.1400506222
 10
405.480116847
 20
-148.1820752448
 10
407.4985613389
 20
-149.3477330993
 10
409.7237974851
 20
-150.6327708267
  0
ENDSEC
  0
SECTION
  2
OBJECTS
  0
DICTIONARY
  5
C
330
0
100
AcDbDictionary
281
     1
  3
ACAD_GROUP
350
D
  3
ACAD_LAYOUT
350
1A
  3
ACAD_MLINESTYLE
350
17
  3
ACAD_PLOTSETTINGS
350
19
  3
ACAD_PLOTSTYLENAME
350
E
  3
ACAD_SCALELIST
350
47
  3
DWGPROPS
350
130
  0
DICTIONARY
  5
D
102
{ACAD_REACTORS
330
C
102
}
330
C
100
AcDbDictionary
281
     1
  0
DICTIONARY
  5
1A
102
{ACAD_REACTORS
330
C
102
}
330
C
100
AcDbDictionary
281
     1
  3
Layout1
350
1E
  3
Layout2
350
26
  3
Model
350
22
  0
DICTIONARY
  5
17
102
{ACAD_REACTORS
330
C
102
}
330
C
100
AcDbDictionary
281
     1
  3
Standard
350
18
  0
DICTIONARY
  5
19
102
{ACAD_REACTORS
330
C
102
}
330
C
100
AcDbDictionary
281
     1
  0
ACDBDICTIONARYWDFLT
  5
E
102
{ACAD_REACTORS
330
C
102
}
330
C
100
AcDbDictionary
281
     1
  3
Normal
350
F
100
AcDbDictionaryWithDefault
340
F
  0
DICTIONARY
  5
47
102
{ACAD_REACTORS
330
C
102
}
330
C
100
AcDbDictionary
281
     1
  3
A0
350
48
  3
A1
350
49
  3
A2
350
4A
  3
A3
350
4B
  3
A4
350
4C
  3
A5
350
4D
  3
A6
350
4E
  3
A7
350
4F
  3
A8
350
50
  3
A9
350
51
  3
B0
350
52
  3
B1
350
53
  3
B2
350
54
  3
B3
350
55
  3
B4
350
56
  3
B5
350
57
  3
B6
350
58
  3
B7
350
59
  3
B8
350
5A
  3
B9
350
5B
  3
C0
350
5C
  3
C1
350
5D
  3
C2
350
5E
  3
C3
350
5F
  3
C4
350
60
  3
C5
350
61
  3
C6
350
62
  3
C7
350
63
  3
C8
350
64
  3
C9
350
65
  3
D0
350
66
  3
D1
350
67
  3
D2
350
68
  0
XRECORD
  5
130
102
{ACAD_REACTORS
330
C
102
}
330
C
100
AcDbXrecord
280
     1
  1
DWGPROPS COOKIE
  2

  3

  4

  6

  7

  8
b.kav
  9

300
=
301
=
302
=
303
=
304
=
305
=
306
=
307
=
308
=
309
=
 40
0.0
 41
2459741.47820037
 42
2459741.478200544
  1

 90
        0
  0
LAYOUT
  5
1E
102
{ACAD_REACTORS
330
1A
102
}
330
1A
100
AcDbPlotSettings
  1

  2
none_device
  4

  6

 40
0.0
 41
0.0
 42
0.0
 43
0.0
 44
0.0
 45
0.0
 46
0.0
 47
0.0
 48
0.0
 49
0.0
140
0.0
141
0.0
142
1.0
143
1.0
 70
   688
 72
     1
 73
     0
 74
     5
  7

 75
    16
147
1.0
148
0.0
149
0.0
100
AcDbLayout
  1
Layout1
 70
     1
 71
     1
 10
0.0
 20
0.0
 11
420.0
 21
297.0
 12
0.0
 22
0.0
 32
0.0
 14
1.0000000000E+20
 24
1.0000000000E+20
 34
1.0000000000E+20
 15
-1.0000000000E+20
 25
-1.0000000000E+20
 35
-1.0000000000E+20
146
0.0
 13
0.0
 23
0.0
 33
0.0
 16
1.0
 26
0.0
 36
0.0
 17
0.0
 27
1.0
 37
0.0
 76
     0
330
1B
  0
LAYOUT
  5
26
102
{ACAD_REACTORS
330
1A
102
}
330
1A
100
AcDbPlotSettings
  1

  2
none_device
  4

  6

 40
0.0
 41
0.0
 42
0.0
 43
0.0
 44
0.0
 45
0.0
 46
0.0
 47
0.0
 48
0.0
 49
0.0
140
0.0
141
0.0
142
1.0
143
1.0
 70
   688
 72
     1
 73
     0
 74
     5
  7

 75
    16
147
1.0
148
0.0
149
0.0
100
AcDbLayout
  1
Layout2
 70
     1
 71
     2
 10
0.0
 20
0.0
 11
0.0
 21
0.0
 12
0.0
 22
0.0
 32
0.0
 14
0.0
 24
0.0
 34
0.0
 15
0.0
 25
0.0
 35
0.0
146
0.0
 13
0.0
 23
0.0
 33
0.0
 16
1.0
 26
0.0
 36
0.0
 17
0.0
 27
1.0
 37
0.0
 76
     0
330
23
  0
LAYOUT
  5
22
102
{ACAD_REACTORS
330
1A
102
}
330
1A
100
AcDbPlotSettings
  1

  2
none_device
  4
Letter_(8.50_x_11.00_Inches)
  6

 40
6.35
 41
6.35
 42
6.35000508
 43
6.35000508
 44
215.9
 45
279.4
 46
0.0
 47
0.0
 48
0.0
 49
0.0
140
0.0
141
0.0
142
1.0
143
1.0
 70
  1712
 72
     1
 73
     0
 74
     0
  7

 75
     0
147
1.0
148
0.0
149
0.0
100
AcDbLayout
  1
Model
 70
     1
 71
     0
 10
0.0
 20
0.0
 11
279.4
 21
215.9
 12
0.0
 22
0.0
 32
0.0
 14
0.0
 24
0.0
 34
0.0
 15
279.4
 25
215.9
 35
0.0
146
0.0
 13
0.0
 23
0.0
 33
0.0
 16
1.0
 26
0.0
 36
0.0
 17
0.0
 27
1.0
 37
0.0
 76
     0
330
1F
331
29
  0
MLINESTYLE
  5
18
102
{ACAD_REACTORS
330
17
102
}
330
17
100
AcDbMlineStyle
  2
Standard
 70
     0
  3

 62
   256
 51
90.0
 52
90.0
 71
     2
 49
0.5
 62
   256
  6
BYLAYER
 49
-0.5
 62
   256
  6
BYLAYER
  0
ACDBPLACEHOLDER
  5
F
102
{ACAD_REACTORS
330
E
102
}
330
E
  0
SCALE
  5
48
102
{ACAD_REACTORS
330
47
102
}
330
47
100
AcDbScale
 70
     0
300
1:1
140
1.0
141
1.0
290
     1
  0
SCALE
  5
49
102
{ACAD_REACTORS
330
47
102
}
330
47
100
AcDbScale
 70
     0
300
1:2
140
1.0
141
2.0
290
     0
  0
SCALE
  5
4A
102
{ACAD_REACTORS
330
47
102
}
330
47
100
AcDbScale
 70
     0
300
1:4
140
1.0
141
4.0
290
     0
  0
SCALE
  5
4B
102
{ACAD_REACTORS
330
47
102
}
330
47
100
AcDbScale
 70
     0
300
1:5
140
1.0
141
5.0
290
     0
  0
SCALE
  5
4C
102
{ACAD_REACTORS
330
47
102
}
330
47
100
AcDbScale
 70
     0
300
1:8
140
1.0
141
8.0
290
     0
  0
SCALE
  5
4D
102
{ACAD_REACTORS
330
47
102
}
330
47
100
AcDbScale
 70
     0
300
1:10
140
1.0
141
10.0
290
     0
  0
SCALE
  5
4E
102
{ACAD_REACTORS
330
47
102
}
330
47
100
AcDbScale
 70
     0
300
1:16
140
1.0
141
16.0
290
     0
  0
SCALE
  5
4F
102
{ACAD_REACTORS
330
47
102
}
330
47
100
AcDbScale
 70
     0
300
1:20
140
1.0
141
20.0
290
     0
  0
SCALE
  5
50
102
{ACAD_REACTORS
330
47
102
}
330
47
100
AcDbScale
 70
     0
300
1:30
140
1.0
141
30.0
290
     0
  0
SCALE
  5
51
102
{ACAD_REACTORS
330
47
102
}
330
47
100
AcDbScale
 70
     0
300
1:40
140
1.0
141
40.0
290
     0
  0
SCALE
  5
52
102
{ACAD_REACTORS
330
47
102
}
330
47
100
AcDbScale
 70
     0
300
1:50
140
1.0
141
50.0
290
     0
  0
SCALE
  5
53
102
{ACAD_REACTORS
330
47
102
}
330
47
100
AcDbScale
 70
     0
300
1:100
140
1.0
141
100.0
290
     0
  0
SCALE
  5
54
102
{ACAD_REACTORS
330
47
102
}
330
47
100
AcDbScale
 70
     0
300
2:1
140
2.0
141
1.0
290
     0
  0
SCALE
  5
55
102
{ACAD_REACTORS
330
47
102
}
330
47
100
AcDbScale
 70
     0
300
4:1
140
4.0
141
1.0
290
     0
  0
SCALE
  5
56
102
{ACAD_REACTORS
330
47
102
}
330
47
100
AcDbScale
 70
     0
300
8:1
140
8.0
141
1.0
290
     0
  0
SCALE
  5
57
102
{ACAD_REACTORS
330
47
102
}
330
47
100
AcDbScale
 70
     0
300
10:1
140
10.0
141
1.0
290
     0
  0
SCALE
  5
58
102
{ACAD_REACTORS
330
47
102
}
330
47
100
AcDbScale
 70
     0
300
100:1
140
100.0
141
1.0
290
     0
  0
SCALE
  5
59
102
{ACAD_REACTORS
330
47
102
}
330
47
100
AcDbScale
 70
     0
300
1/128" = 1'-0"
140
0.0078125
141
12.0
290
     0
  0
SCALE
  5
5A
102
{ACAD_REACTORS
330
47
102
}
330
47
100
AcDbScale
 70
     0
300
1/64" = 1'-0"
140
0.015625
141
12.0
290
     0
  0
SCALE
  5
5B
102
{ACAD_REACTORS
330
47
102
}
330
47
100
AcDbScale
 70
     0
300
1/32" = 1'-0"
140
0.03125
141
12.0
290
     0
  0
SCALE
  5
5C
102
{ACAD_REACTORS
330
47
102
}
330
47
100
AcDbScale
 70
     0
300
1/16" = 1'-0"
140
0.0625
141
12.0
290
     0
  0
SCALE
  5
5D
102
{ACAD_REACTORS
330
47
102
}
330
47
100
AcDbScale
 70
     0
300
3/32" = 1'-0"
140
0.09375
141
12.0
290
     0
  0
SCALE
  5
5E
102
{ACAD_REACTORS
330
47
102
}
330
47
100
AcDbScale
 70
     0
300
1/8" = 1'-0"
140
0.125
141
12.0
290
     0
  0
SCALE
  5
5F
102
{ACAD_REACTORS
330
47
102
}
330
47
100
AcDbScale
 70
     0
300
3/16" = 1'-0"
140
0.1875
141
12.0
290
     0
  0
SCALE
  5
60
102
{ACAD_REACTORS
330
47
102
}
330
47
100
AcDbScale
 70
     0
300
1/4" = 1'-0"
140
0.25
141
12.0
290
     0
  0
SCALE
  5
61
102
{ACAD_REACTORS
330
47
102
}
330
47
100
AcDbScale
 70
     0
300
3/8" = 1'-0"
140
0.375
141
12.0
290
     0
  0
SCALE
  5
62
102
{ACAD_REACTORS
330
47
102
}
330
47
100
AcDbScale
 70
     0
300
1/2" = 1'-0"
140
0.5
141
12.0
290
     0
  0
SCALE
  5
63
102
{ACAD_REACTORS
330
47
102
}
330
47
100
AcDbScale
 70
     0
300
3/4" = 1'-0"
140
0.75
141
12.0
290
     0
  0
SCALE
  5
64
102
{ACAD_REACTORS
330
47
102
}
330
47
100
AcDbScale
 70
     0
300
1" = 1'-0"
140
1.0
141
12.0
290
     0
  0
SCALE
  5
65
102
{ACAD_REACTORS
330
47
102
}
330
47
100
AcDbScale
 70
     0
300
1-1/2" = 1'-0"
140
1.5
141
12.0
290
     0
  0
SCALE
  5
66
102
{ACAD_REACTORS
330
47
102
}
330
47
100
AcDbScale
 70
     0
300
3" = 1'-0"
140
3.0
141
12.0
290
     0
  0
SCALE
  5
67
102
{ACAD_REACTORS
330
47
102
}
330
47
100
AcDbScale
 70
     0
300
6" = 1'-0"
140
6.0
141
12.0
290
     0
  0
SCALE
  5
68
102
{ACAD_REACTORS
330
47
102
}
330
47
100
AcDbScale
 70
     0
300
1'-0" = 1'-0"
140
12.0
141
12.0
290
     0
  0
ENDSEC
  0
EOF
